Cifras para Violão e Guitarra » R »Rene Gonzalez » Enamorado de tí (Tab)

Enamorado de tí
Rene Gonzalez

Letras, cifras e tablaturas para violão, guitarra, piano, ukulele e baixo

  • E --3--3--3--1--3---3--1--3---3--3--3--1--3--
    A --3--1-------------------------------------
    D -------------------------------------------
    G -------------------------------------------
    B -------------------------------------------
    e -------------------------------------------
    
    E --3--3--3--1--3---3--1--3---3--3--3--1--3--
    A --1--3-------------------------------------
    D -------------------------------------------
    G -------------------------------------------
    B -------------------------------------------
    e -------------------------------------------
    
          D                          A
    Tengo tanto que decirte que no encuentro las palabras
            C                                  A
    De expresarte lo que encierro aquí en mi corazón
            D                             A
    Tú has mojado mi terreno con tu lluvia Padre bueno
    
  • E --3--3--3--1--3---3--1--3---3--3--3--1--3--
    A --3--1-------------------------------------
    D -------------------------------------------
    G -------------------------------------------
    B -------------------------------------------
    e -------------------------------------------
    
    E --3--3--3--1--3---3--1--3---3--3--3--1--3--
    A --1--3-------------------------------------
    D -------------------------------------------
    G -------------------------------------------
    B -------------------------------------------
    e -------------------------------------------
    
          C                         Em
    Tengo tanto que decirte que no encuentro las palabras
            F                                 C
    De expresarte lo que encierro aquí en mi corazón
            C                             Em
    Tú has mojado mi terreno con tu lluvia Padre bueno
    
  • +
    ¡Colabora con nosotros!
    Envíanos tu versión de esta canción

Letra de Enamorado de tí
Tengo tanto que decirte que no encuentro las palabras
De expresarte lo que encierro aquí en mi corazón
Tú has mojado mi terreno con tu lluvia Padre bueno
Y mi huerto ha florecido lleno de esplendor.
Tu cambiaste mi tristeza en gozo
Y mi valle ha cobrado su verdor
Ya no vivo confinado a mi pasado
Me ha librado de toda condenación.
Vivo enamorado de ti, Vivo enamorado de ti
Me acarician tus palabras, me da vida tu mirada
Vivo enamorado de ti.
Vivo enamorado de ti, vivo enamorado de ti
Que lo sepa el mundo entero, que yo sin tu amor me muero
Vivo enamorado de ti
ESPERO QUE SEA DE GRAN AYUDA
JOSENGOMEZ@HOTMAIL.COM




[Enamorado de tí acordes][Enamorado de tí chords]
© LaCuerda.net · notícia legal · privacidade · es · en · pt · contato
DINAMICO