Cifras para Violão e Guitarra » R »la Renga » El rey de la triste felicidad (Tab)

El rey de la triste felicidad
la Renga

Letras, cifras e tablaturas para violão, guitarra, piano, ukulele e baixo

  • e |--------------------------------------------|
    B |--------------------------------------------|
    G |----7-7-7-7---4-4-4-4---7-7-7-7---4-4-4-4---|
    D |----0-0-0-0---0-0-0-0---0-0-0-0---0-0-0-0---| 100 % correcticima
    A |----5-5-5-5---2-2-2-2---5-5-5-5---2-2-2-2---|
    E |--------------------------------------------|
    
    Esto se hace todo con distorcion
    
    INTRO:
    E |---------------------------------------------------------|
    B |---------------------------------------------------------|
    G |------------10-10---------------------9-10-9-10-9--------|
    D |---9-9-9-9--10-10------12----9-9-9-9--9-10-9-10-9--------| X 2
    A |---9-9-9-9--8--8-------12----9-9-9-9--7-8--7-8--7--------|
    E |---7-7-7-7---------7-9-10----7-7-7-7---------------------|
    
    
    INTRO x2
    
    
  • E |--------------------------------------------||
    B |--------------------------------------------||
    G |----7-7-7-7-/-4-4-4-4-/-7-7-7-7-/-4-4-4-4---||
    D |----x-x-x-x---x-x-x-x---x-x-x-x---x-x-x-x---||
    A |----5-5-5-5-/-2-2-2-2-/-5-5-5-5-/-2-2-2-2---||
    E |--------------------------------------------||
    
    E |-------------------------------------------------||
    B |-------------------------------------------------||
    G |---------10b----6-7-------------10-11-10-11--10--||
    D |-9-7-9-3-10b-9--6-7---9-7-9-5---10-11-10-11--10--||  X 2
    A |-9-7-9-5-----9--4-5---9-7-9-3--------------------||
    E |-7-5-7-------7--------7-5-7----------------------||
    
    
    
    
    
    RE                               SI
      ¿Qué podemos hacer cuando se sienta mal?
    
  • e|----------------------------------------------|---------------------------------------------|
    B|----------------------------------------------|---------------------------------------------|
    G|----------------------------------------------|--4---4--10b-----------4---4---10-11-10-11-10|
    D|----------------------------------------------|--4---4--10b------12---4---4---10-11-10-11-10|
    A|--5-5-5-5-5-5--3-3-3-3-3--5-5-5-5-5--3-3-3-3-3|--2-0-2-----------12---2-0-2-----------------|
    E|----------------------------------------------|--------------7-9-10-------------------------|
                                                                         x2
    
    RE                           SIm
     Que podemos hacer cuando se sienta mal
    RE                             SIm
     Si esta bancando su bronca masticando vidrios
    RE                      SIm
     Quien lo quiere invitar,   a ver televisión
    SOL                        RE
     Quien sacara las astillas,  de su corazón
    LA               MI                        SOL7
     Que podrán decir  Quien lo va a convencer ¿eh?
    
    e|---------------------------------------------|
    
  • +
    ¡Colabora con nosotros!
    Envíanos tu versión de esta canción

Letra de El rey de la triste felicidad
Esto se hace todo con distorcion
¿Qué podemos hacer cuando se sienta mal?
si está bancando su bronca masticando vidrios
¿Quién lo quiere invitar a ver televisión?
¿Quién sacará las astillas de su corazón?
¿Qué podrán decir? ¿Quién lo va a convencer?
¿Qué podemos hacer cuando se sienta bien?
si está salvando su sueño anestesiándose
¿Quién lo quiere invitar con un electroshock?
¿Quién lamerá los rasguños de su desesperación?
¿Qué podemos decir? ¿Quién lo va a convencer?
Se ha convertido en daga el dolor de este tonto rey,
rey de un reino sin mundo, reino que no tiene ley,
rey que se desangra pero aún tiene esperanzas,
serás feliz siendo triste, rey qué puedo decirte.
Base (Si5 Mi5) x2
_Este solo se hace
todo mobiendo el wha wha.
Rapido !
Aca ya no usa mas wha wha.
Sigue Base (Re5 Si5) x4
Ahora solo distorción
Fin del solo.. lo tube que transcribir asi cortado
porque no me lo aceptaba.
Nada podemos hacer cuando se sienta mal,
nada podemos hacer cuando se sienta bien,
él es el rey de una maldición que lo hizo rey,
será feliz siendo triste, rey qué puedo decirte.
Fin




[El rey de la triste felicidad acordes][El rey de la triste felicidad chords]
© LaCuerda.net · notícia legal · privacidade · es · en · pt · contato
DINAMICO