Cifras para Violão e Guitarra » R »la Renga » El satiro de la mala leche (Tab)

El satiro de la mala leche
la Renga

Letras, cifras e tablaturas para violão, guitarra, piano, ukulele e baixo

  • e|-----5----7------999999------5----777777------5---555555-----------7--7--
    B|-----------------888888-----------666666----------444444-------5---9--9--
    G|--4s6--6s7--7s9--999999---4s6--6--777777--4s6-----555555---4-5-----7--7--
    D|-------------------------------------------------------------------9--9--
    A|-------------------------------------------------------------------7--7--
    E|-------------------------------------------------------------------------
    
       A7
    Tenía veintiocho y nunca nunca la ponía
    
    su problema sexual crecía día a día
                 B7              E7
    hasta que un día no pudo más
                                 A7 (A5-C#5-D5-D#5-E5) (D5-D#5-E5)
    la leche hervía, que hervía.
       A7
    Se compró un sobretodo largo hasta los tobillos
    
    y sin ropa interior se fue a caminar por caballito
          B7           E7
    
  •     A
     tenia veintiocho y nunca la ponia
    
      su problema sexual cresia dia a dia 
                B
      hasta que ya no pudo mos 
    E7                           A   E7
      la leche hervia, que hervia
    
    
            A
    se compro un sobretodo largo hasta los tobillos
    
    y sin ropa interior se fue a pasear por caballito
          B
      a buscar a una mujer
      E7                A     E7
       que saciara su placer 
    
    
    
  • e|-------------9~-999-------5~-555-------2~-222-------5---|
    B|---6-6----7--8~-888--4-6--4~-444--4-6--1~-111--4-6--5---|
    G|---7----8----9~-999--5-7--5~-555--5-7--2~-222--5-7--6---|
    D|----------------------------------------------------5---|
    A|----------------------------------------------------7---|
    E|----------------------------------------------------5---|
    
      A7       B7        E7        F#m       Bm        Am7
    O|||||5  O|||||7   ||||O|5   ||||||    ||||||    OOOOOO
    |||O||   |||O||    ||O|||    O|||||    xOOOOO    ||||||
    |O||||   |O||||    |O|O||    |||O||    ||||O|    |O||||
    ||||||   ||||||    ||||||    |OO|||    ||OO||    ||||||
    ||||||   ||||||    ||||||    ||||||    ||||||    ||||||
    
    Final:                      G   A
    |------99-----77-----55-----3---5--------------|
    |------88-----66-----44-----3---5--------------|
    |------99-----77-----55-----3---5--------------|
    |---------------------------3---7--------------|
    |---------------------------5---7--------------|
    
  • +
    ¡Colabora con nosotros!
    Envíanos tu versión de esta canción

Letra de El satiro de la mala leche
tenia veintiocho y nunca la ponia
su problema sexual cresia dia a dia
hasta que ya no pudo mos
la leche hervia, que hervia
se compro un sobretodo largo hasta los tobillos
y sin ropa interior se fue a pasear por caballito
a buscar a una mujer
que saciara su placer
antes de la madrugada se paro en una esquina
a esperar que apareciera una linda palomita
cuando de repente vio a una morocha cautivante
que se acercaba a la garras del inesperado amante
la arrincono contra la pared le levanto la minifalda
le rompio la medibacha y empezo a manosearla
el no habia tenido antes
tal terrible sentimiento
pero lo gritos de la guanaca se escucharon hasta el cielo

el se puso tan nervioso que no encontraba el agujero
cuando se quiso acordar
se vio rodeado de patrulleros
y eses fue el fin su suerte lo llevaron detenido
no fonico dejo fornicar y encima lo fornicieron
cuando le dieron la binvenida
los muchachos de TEDEBO
cuando le dieron la binvenida
B A7/E Ab7/Eb G7/D A7 Ab7
los muchachos de TEDEBO
basada en una historia real de( marselo y pablo)




[El satiro de la mala leche acordes][El satiro de la mala leche chords]
© LaCuerda.net · notícia legal · privacidade · es · en · pt · contato
DINAMICO