Cifras para Violão e Guitarra » R »la Renga » Motoralmaisangre (Tab)

Motoralmaisangre
la Renga

Letras, cifras e tablaturas para violão, guitarra, piano, ukulele e baixo

  • A-B-G-D-D X2
    
    A      B   G
     Si en sus manos 
               D
     ya no hay tiempo,
    A    B  G     
     todo está en 
            D
     su corazón
    
    
    A    B   G
     Va buscando aún
           D
     su estrella,
    A B  G
     en las rutas
          D
     su motor
    
  • intro: (A-B-G-D)X2
    
    A5     B5  G5             D5
    Si en sus manos ya no hay tiempo,
    A5  B5  G5        D5
    todo está en su corazón
    A5  B5  G5          D5
    Va buscando aún su estrella,
    A5  B5  G5       D5
    en las rutas su motor
    
    C5      A5 RIFF
    Revisa todo
    C5       A5 RIFF
    en tu interior
    C5             A5
    para salir en la mañana
     G            RIFF 1
    detrás del sol.
    
    
  • Bueno gente...aca les tengo el solo de este temazo,suena perfecto!!!
    Espero q lo puedan sacar!
    
    
    
                                 *
    |------------------------------------------------------------------------|
    |-------10-11b-11ba-11b-10-11b---11b-10-9-10-9-8--8-10-9----10-10--------|
    |--9-12---------------------------------------------------8----8ba--8~~~-|
    |------------------------------------------------------------------------|
    |------------------------------------------------------------------------|
    |------------------------------------------------------------------------|
    
    
    |---------------------------------------------------|---------------------
    |---------------------------------------------------|---------------------
    |---------------------------------------------------|------5--------5-7ba-
    |------------------------------------------------5--|--5-7---7p5h7--------
    |--------12---------12---12-10-9-7-5-3h5p3h5-5s7----|---------------------
    |--10-12------10-12-------------------------
  • INTRO
    
    E|----3-------------------------------3---|
    A|-0-2--3h-5-5-5-5-5-3h-5-5-5-5-5 0-2--3h5|
    D|----------------------------------------|
    G|----------------------------------------|
    
    ESTROFAS
    (Si en sus manos ya no...)
    E|----3--------------------------|
    A|-0-2--3h-5-5-5-5-5-3h-5-5-5-5-5|
    D|-------------------------------|
    G|-------------------------------|
    
    ESTRIBILLO
    (Revisa todo....)
    
    E|-------5(X8)-----5(X8)-----5(X8)-3(X8)---------|
    A|-3(X8)------3(X8)-----3(X8)------------3-2-3-5-|
    D|-----------------------------------------------|
    G|-----------------------------------------------|
    
    PRE-SOLO
    
    E|----3-----3---|
    A|-0-0-0-2-0-0-0|Esto se hace
    D|--------------|4 veces
    G|--------------|
    
    SOLO
    
    E|-------5(X8)-----5(X8)-----5(X8)-3(X8)---------|
    A|-3(X8)------3(X8)-----3(X8)------------3-2-3-5-|TRES
    D|-----------------------------------------------|VECES
    G|-----------------------------------------------|
    
    FINAL
    
    E|--5--5--|
    A|--------|
    D|--------|
  • LA RENGA
    MOTOR ALMA Y SANGRE
    Armonica el Sol (G)
    
    (4)4(4)4(4)5(5)5(6)b(6)b7b7b7b(6)6
    44(4)(5)6 44(4)(5)6 (5)
    (4)b(4)b(4)b(4)b(4)b(4)b(4)b(4)b(4)b(4)b
    
    2da parte
    
    (4)44(4) 4(4)5(4) (4)44(4) repite 4 veces .
    (6)b waa(6)b waa(6)b waa(6)b waa(6)b waa 6 (4)tuu(4)tuu(4)tuu
    7b wii7b wii7b wii7b wii7b wii7b wii7b wii7b wii
    (6)7(6)8(7)7(6)6(5)5(4)(4)b wua wua (6)(5)(4)... .
    (4)5(5)5(6)7(6)888..
    
    Final (4)44(4)
    
    Un saludo para los chicos de La Buena Pipa RnR.-
  • +
    ¡Colabora con nosotros!
    Envíanos tu versión de esta canción

Letra de Motoralmaisangre
Si en sus manos
ya no hay tiempo,
todo está en
su corazón
Va buscando aún
su estrella,
en las rutas
su motor
Estribillo 1
Revisa todo
en tu interior
para salir en la mañana
detrás del sol.
Y al ver que en la ruta
hierve la sangre de tu pasión,
busca el secreto que trae el viento
búscalo.
El secreto
de los vientos,
guarda bien
en su verdad.
Ha renacido
con su aliento,
para mostrarme
que estoy muy atrás.
Estribillo 2
Revisa todo
en tu interior
para salir en la mañana
detrás del sol
Y al ver que en la ruta
hierve la sangre de mi pasión
guarda el secreto que trae el viento
guárdalo
Sólo Armónica
Base(C-A)X3 G
Sólo Guitarra
Base Estribillo
Estribillo 1
Fin: A-A




[Motoralmaisangre acordes][Motoralmaisangre chords]
© LaCuerda.net · notícia legal · privacidade · es · en · pt · contato
DINAMICO