Cifras para Violão e Guitarra » R »la Renga » Oscuro Diamante (Tab)

Oscuro Diamante
la Renga

Letras, cifras e tablaturas para violão, guitarra, piano, ukulele e baixo

  • ---------------------------------------------------------------
    
    
    
    OSCURO DIAMANTE - LA RENGA
    --------------------------
    
    RIFF - INTRO
    
    CON DISTORSION
    
    [  B5 - C5 - Em5 - C5 - D5 ] X5
    
    Em5 X 2
                                                Em5  Em5
    E ---------------------------------------------------
    A --------------------------------12--7^8------------
    D ------------9--11--11^12^11--9----------9----------
    G --9--9--11---------------------------------2----2--
    B -------------------------------------------2----2--
    
  • E----------------------------------------------------
    B----------------------------------------------------
    G----------------------------------------------------
    D-----------5--7----------------------------5-5----------
    A-2-3--2-2--3--5--5/--(X4)-2-3-2-2-punteo A-3-3--punteo B
    E------0-0---------------------0-0-----------------------
    
    E                        C
    Busquemos vida algún lugar
                                      G
    al reparo del mundo sin brillo que hoy
                      D
    en el cosmos de la mente
           B       C
    se hizo estrella opaca.
    E                         C
    Hacia donde mas podemos ir?
                                        G
    Tal vez el oscuro diamante este en mi.
                        D
    
  • SI5 DO5 MI5 DO5 RE5
    
    
    e------------------------------------------
    b----------------------------------12------
    g----------------9--11--11^12-11-9----11---
    d--2-2---------9---------------------------
    a--2-2-------7-----------------------------
    E--0-0--1(x)-------------------------------
    
    ----------------------------------------------------
    ----------------------------------17--17--19--------
    --5-5---------14-16-16^17--16-114-------------------
    --5-5------14---------------------------------------
    --3-3---15------------------------------------------
    ----------------------------------------------------
    
     --------------------------------------
     -15~15~-15-15-17-15-15-13-12-13-------
     --------------------------------------
    
  • |-----------------------------     -------------|
    |-----------------------------     -------------|
    |-----------------------------     -------------|
    |----------------5--5---7--7--x4 + -------------|
    |-9--10---2--2---3--3---5--5--     --------2-2--|
    |-7--8----0--0----------------     -7~-8~--0-0--|
    
    
    ------------------7---------------------------------------12~~-
    ----------7-8-7------7h8p7--------------------12-13-12---------
    --------9-------9--------------------------14----------14------
    ------9----------------------------------14--------------------
    -7-10------------------------------12-15-----------------------
    ----------------------------8--8-------------------------------
    
    -14------------------------------------------------
    ----15~~--15b17-15~--15-13-12--13--13-12---12------
    -------------------------------------------14b-----
    ---------------------------------------------------
    ---------------------------------------------------
    
  • SI5 DO5 MI5 DO5 RE5 X4
    Si5 Do5 y engancha al Riff
    
    
    h = hammer on (ligado ascendente)
    p = pull off (ligado descendente)
    ~ = vibrato
    r = bend/release (estira y vuelve)
    s = slide (desliza)
    
    Riff
    
        MI5                               DO5
    E|---------------0-2-3-2-0-7--------------------3-5-8-7-5--|
    B|------------0--------------8-7h8p7-----------------------|
    G|------------------------------------5-5-----5------------|
    D|--2-2----2--------------------------5-5---5--------------|
    A|--2-2--2----------------------------3-3-3----------------|
    E|--0-0----------------------------------------------------|
    
    
  • |---------------------------------------------|
    |---------------------------------------------|
    |---------------------------------------------|
    |--------2-2-2-5-5---7----------2-2-2-5-5---7-|
    |-9v-10v-2-2-2-3-3-0-5---9--10--2-2-2-3-3-0-5-|
    |-7v-8v--0-0-0-----------7v-8v--0-0-0---------|
    
    |---------------------------------------------------------|
    |---------------------------------------------------------|
    |---------------------------------------------------------|
    |---------2-2-2-5-5---7----------2-2-2-5-5---7------------|
    |-9--10---2-2-2-3-3-0-5---9--10--2-2-2-3-3-0-5------------|
    |-7v-8v---0-0-0-----------7v-8v--0-0-0-----------77778888-|
    
    |------------------------7v----------|
    |----------------7-8p7-------7h8p7---|
    |--------------9-------9-----------9-|
    |------------9-----------------------|
    |-2-2---7-10-------------------------|
    |-0-0--------------------------------|
    
  •   B5     C5      D5    E5     G5
    6/-X-/  /-X-/  /-X-/  /-0-/  /-3-/
    5/-2-/  /-3-/  /-5-/  /-2-/  /-5-/
    4/-4-/  /-5-/  /-7-/  /-2-/  /-5-/
    3/-X-/  /-X-/  /-X-/  /-X-/  /-X-/
    2/-X-/  /-X-/  /-X-/  /-X-/  /-X-/
    1/-X-/  /-X-/  /-X-/  /-X-/  /-X-/
    
    Las tablaturas están de 6ª a 1ª
    
    intro:
          (B5 C5 E5 C5 D5)x4
           B5 C5 E5
                                              C5
    /-----------------------------------------------/
    /--7---10---------------------------------3-3---/
    /---------9-------------------------------5-5---/
    /-----------9------------9----------------------/
    /-------------7--7p8h7---------7--7p8h7---------/
    /---------------------------7-------------------/
    
  • El bajo empieza junto con la bata y la viola y es asi...
    
    Intro:
    
    G---------------- X4
    D----------------
    A-2-3-------2/5--
    E-----0-0-0------
    
    Riff:
    
    G----------------------------------------
    D----------------------------------------
    A-----3-3--------------------------------
    E-0-0------5/3-3-3-3--5-7-10-10-10-7-9-10
    
    Verso:X2 "Busquemos vida..."
    
    G-------------------------------------------------------------
    D-----------5-------------------------------------------------
    A-7-7-7-7-8---8-7-3-3-3-3-7-5---------------------------------
    E----------------------------7-5-3-3-3-3--5-7-10-10-10-7-9-10-
    
    Riff:X1 igual al verso
    
    G-------------------------------------------------------------
    D-----------5-------------------------------------------------
    A-7-7-7-7-8---8-7-3-3-3-3-7-5---------------------------------
    E----------------------------7-5-3-3-3-3--5-7-10-10-10-7-9-10-
    
    Verso:X2 "Una huella invisible quisiera dejar..."
    
    G-------------------------------------------------------------
    D-------
  •      Este es la parte del  solo de saxo, tocado en armonica D:
    
      7-7-7-7-7-7-7-(9)-(9)-(8)-(9b) .................
      9b-9b-9b-9b-9b-9b-9   -(8)-(8) -8-(8)-7-(6)m....
      (6)=>(7)-(9)-(7)-(7)-(9)-(7)-(7)-(9)-(7)-(7)-(9)-(7)
      4-(4)-(5)-6-6b-6b-6b-6-6-(6)-7-7m..
      7-(8)-(8)-(8)-7-7-(9b)-(9b)-(9)-(8)-7-(6)-(6)-(6)m
      (4) -6-(5)-6-6b-6b-(6) -7-(6)- 7-(8)-7-7
      (6)-7-(8)-(9)-(8)-(9)=>(8)-(8)-(6)-(6)-(8)-7
      (9)-(9)-(9)-(8)-7-(8)-(9b)-(9b)-(9b)-(9b)-(9b)-(9b)
      9b.......9b........(9b)............
    
    
    
      m = efecto con la mano , hacer vibrar la nota tapando y levantando
          con la mano.
    
      => = ligado, pasar de una nota a otra sin dejar de aspirar o soplar
  • +
    ¡Colabora con nosotros!
    Envíanos tu versión de esta canción
  • Tutorial
    HD
    Como tocar "Oscuro diamante" de la Renga en el bajo tutorial#49
    6:16

Letra de Oscuro Diamante
Busquemos vida algún lugar
al reparo del mundo sin brillo que hoy
en el cosmos de la mente
se hizo estrella opaca.
Hacia donde mas podemos ir?
Tal vez el oscuro diamante este en mi.
Tal vez seamos fugitivos
de donde nadie escapa.
Una huella invisible quisiera dejar
y que nadie sepa que estuvimos acá
Quién dio a luz al primer sueño?
para ir tan lejos
si pudieran mis ojos ver en el sol
para saber, en la sombra descifrar
pero aunque ya se hizo tarde
sigamos buscando.
en la primer cuerda, se toca con vibrato.
Pérdido sin decirlo presiento el final
enterrardo en la noche el pesado dolor
nos hacemos mas livianos
nos quedamos sin sentido
el mundo por fin se apagó
dejando a oscuras la vieja ilusión
y aunque sea ya muy tarde
seguimos buscando
FInal: Igual que la intro pero en lugar del punteo A hace
el punteo C que es un arreglo del A
Punteo A :
Punteo B :
Punteo C:
Vibrato>>> ~
Vibrato fuerte>> ~~~
Estirar y bajar>>> ba
Estirar y bajar varias veces>>> ba/
Slide>>> s
Sonidos armónicos>>> <>
Ligados ascendentes> h
Ligados descendentes> p
Se mantiene la estirada> /
Tremolo *
Toca la nota siguente con la estirada mantenida b/
Aguante La Renga
El Cholo (guido_rosello73@hotmail.com)




[Oscuro Diamante acordes][Oscuro Diamante chords]
© LaCuerda.net · notícia legal · privacidade · es · en · pt · contato
DINAMICO