Cifras para Violão e Guitarra » R »Resistencia Suburbana » FMI (Tab)

FMI
Resistencia Suburbana

Letras, cifras e tablaturas para violão, guitarra, piano, ukulele e baixo

  •    SIm                       LA
    ¿Quién es el mal?, yo digo vos
    ¿Quién es la muerte?, digo vos
    ¿Quién Satanás?, yo digo vos
    ¿Quién la crueldad?, yo digo vos.
    
    SIm     LA     SIm   LA     SIm     LA     SIm   LA
    Haaaa! Brutal e Intensa, haaaa! Brutal e Intensa.
    Haaaa! Brutal e Intensa, haaaa! Brutal e Intensa.
    
    SIm                           LA
    ¿Quién es la muerte?, yo digo vos
    ¿Quién Satanás?, yo digo vos
    ¿Quién la crueldad?, yo digo vos
    ¿Quién la masacre?, digo vos.
    
    SIm     LA     SIm   LA     SIm     LA     SIm   LA
    Haaaa! Brutal e Intensa, haaaa! Brutal e Intensa.
    Haaaa! Brutal e Intensa, haaaa! Brutal e Intensa.
    
    
  • FMI:
    
    Intro:
    
    1) ----10---9---7---5---2---
    2) -------------------------
    3) -------------------------
    4) -------------------------
    5) -------------------------
    6) -------------------------
    
    Ay “La reconcha de la lora”
    
    1) ----10---9---7---5---7----
    2) --------------------------
    3) --------------------------
    4) --------------------------
    5) --------------------------
    6) --------------------------
    
    1) ----12---11---9---7----
    2) -----------------------
    3) -----------------------
    4) -----------------------
    5) -----------------------
    6) -----------------------
    
    1) ----5---7---
    2) ------------
    3) ------------
    4) ------------
    5) ------------
    6) ------------
    
    1) ---5---7---9-/-12---10-----<12>---10---<12>---10---7---
    2) -------------------------------------------------------
    3) -------------------------------------------------------
    4) -------------------------------------------------------
    5) -------------------------------------------------------
    6) -----------------------------
  • F.M.I (masacre brutal e intensa):
    
    
    Intro:
    
    1) --10--9------------------
    2) ---------10--7-----------
    3) ----------------7--------
    4) -------------------------
    5) -------------------------
    6) -------------------------
    
    “La reconcha de la lora”
    
    1) --10--9---------7--------
    2) ---------10--7-----------
    3) -------------------------
    4) -------------------------
    5) -------------------------
    6) -------------------------
    
    1) -14--12----------------
    2) ---------15--12--10--12
    3) -----------------------
    4) -----------------------
    5) -----------------------
    6) -----------------------
    
    RIFF
    
    1) ------10--14--12----14-12-10--14-12-10-----------------
    2) --12-----------------------------------12--------------
    3) -------------------------------------------------------
    4) -------------------------------------------------------
    5) -------------------------------------------------------
    6) -------------------------------------------------------
    
    1) ------10--14--12----14-12-10--14-12-10-------------
  • +
    ¡Colabora con nosotros!
    Envíanos tu versión de esta canción

Letra de FMI
¿Quién es el mal?, yo digo vos
¿Quién es la muerte?, digo vos
¿Quién Satanás?, yo digo vos
¿Quién la crueldad?, yo digo vos.
Haaaa! Brutal e Intensa, haaaa! Brutal e Intensa.
Haaaa! Brutal e Intensa, haaaa! Brutal e Intensa.
¿Quién es la muerte?, yo digo vos
¿Quién Satanás?, yo digo vos
¿Quién la crueldad?, yo digo vos
¿Quién la masacre?, digo vos.
Haaaa! Brutal e Intensa, haaaa! Brutal e Intensa.
Haaaa! Brutal e Intensa, haaaa! Brutal e Intensa.
Bajo:
ehh vos ahì F M I !!!
Cuàntos niños mas querès que sufran!
Porque nos causas tanto dolor
Y gran empeño tú le pones
Succionas sangre que corre y corre
De tu matanza que es Intensa y Brutal
Haaaa! Brutal e Intensa, haaaa! Brutal e Intensa.
Haaaa! Brutal e Intensa, haaaa! Brutal e Intensa.
Haaaa! Brutal e Intensa, haaaa! Brutal e Intensa.
Haaaa! Brutal e Intensa, haaaa! Brutal e Intensa.
Brutal e Intensa, Brutal e Intensa!!!
Brutal e Intensa, Brutal e Intensa!!!
Como siempre se la dedico a mi negra que la amo….




[FMI acordes][FMI chords]
© LaCuerda.net · notícia legal · privacidade · es · en · pt · contato
DINAMICO