Cifras para Violão e Guitarra » R »Ricardo Arjona » Mojado (Tab)

Mojado
Ricardo Arjona

Letras, cifras e tablaturas para violão, guitarra, piano, ukulele e baixo

  • Am
     EMPACO UN PAR DE CAMISAS
    
     UN SOMBRERO, SU VOCACIÓN
               G
     DE AVENTURERO, SEIS CONSEJOS
                          F
     SIETE FOTOS, MIL RECUERDOS.
    
    Am
     EMPACO SUS GANAS DE QUEDARSE
                              G
     SU CONDICIÓN DE TRANSFORMARSE
    
     EN EL HOMBRE QUE SOÑÓ
                 F
     Y NO HA LOGRADO.
    
           Am
     DIJO ADIÓS CON UNA MUECA
    
  • INTRO: Cm Bb Ab G
    
    Cm
    Empacó un par de camisas, un sombrero
                                       Bb
    Su vocación de aventurero, seis consejos, siete fotos
           Ab
    Mil recuerdos
    Cm
    Empacó sus ganas de quedarse
    
    Su condición de transformarse
          Bb
    en el hombre que soñó
               Ab
    y no ha logrado
    Fm                                        G7
    Dijo adiós con una mueca disfrazada de sonrisa
                      Ab
    Y le suplicó a su Dios crucificado en la repisa
    
  • E----------8---10/11--11--10h11p10--8--10--11/13--10--|
    B-------8---------------------------------------------|
    G-----------------------------------------------------|
    D-----------------------------------------------------|
    A-----------------------------------------------------|
    E-----------------------------------------------------|
    
    
    E----------8--6--8--10-10/11--8-------10--------8-----|
    B-----------------------------------------------------|
    G----------------------------------10--------8--------|
    D-----------------------------------------------------|
    A-----------------------------------------------------|
    E-----------------------------------------------------|
    
    
    E--------8p7--------8p7--------8p7---------8----------|
    B-----8-------8----------8-----------8----------------|
    G--7-------------7----------7-----------7-------------|
    D-----------------------------------------------------|
    
  • Ola!! aquí les dejo la versión correcta del intro de sta grandiosa rola
    
    debes colocar el capo en el 3er traste.
    
    INTRO
    
    E----------8---10/11----11--10h11p10--8--10--11/13----10--|
    B-------8-------------------------------------------------|
    G---------------------------------------------------------|
    D--------------------10-----------------------------8-----|
    A---------------------------------------------------------|
    E---------------------------------------------------------|
    
    
    E----------8----8-—10/11----8---------10-------8----------|
    B------------11-------------------------------------------|
    G----------------------------------10--------8------------|
    D-------------------------6-------------------------------|
    A---------------------------------------------------------|
    E---------------------------------------------------------|
    
           M.C. VII
    E------------8p7--------8p7--------8p7---------8----------|
    B---------8-------8----------8-----------8----------------|
    G------7---------
  • +
    ¡Colabora con nosotros!
    Envíanos tu versión de esta canción
  • Tutorial
    HD
    Como tocar Mojado de Ricardo Arjona

    Intro - Tablatura
    7:28

Letra de Mojado
EMPACO UN PAR DE CAMISAS
UN SOMBRERO, SU VOCACIÓN
DE AVENTURERO, SEIS CONSEJOS
SIETE FOTOS, MIL RECUERDOS.
EMPACO SUS GANAS DE QUEDARSE
SU CONDICIÓN DE TRANSFORMARSE
EN EL HOMBRE QUE SOÑÓ
Y NO HA LOGRADO.
DIJO ADIÓS CON UNA MUECA
DISFRAZADA DE SONRISA
Y LE SUPLICO A SU DIOS
CRUCIFICADO EN LA REPISA
EL RESGUARDO DE LOS SUYOS.
Y PERFORO LA FRONTERA
COMO PUDO.
SI LA LUNA SUAVE SE DESLIZA
POR CUALQUIER CORNISA SIN
PERMISO ALGUNO, PORQUE EL MOJADO
PRECISA COMPROBAR CON VISAS
QUE NO ES DE NEPTUNO.
EL MOJADO TIENE GANAS DE SECARSE
EL MOJADO ESTA MOJADO POR LAS
LAGRIMAS QUE BOTA LA NOSTALGIA
EL MOJADO, EL INDOCUMENTADO
CARGA EL BULTO QUE EL LEGAL
NO CARGARÍA, NI OBLIGADO
EL SUPLICIO DE UN PAPEL
LO HA CONVERTIDO EN FUGITIVO
Y NO ES DE AQUÍ PORQUE SU NOMBRE
NO APARECE EN LOS ARCHIVOS
NI ES DE ALLÁ PORQUE SE FUE.
MOJADO, SABE A MENTIRA TU VERDAD
SABE A TRISTEZA LA ANSIEDAD
DE VER UN FREEWAY Y SOÑAR
CON LA VEREDA QUE CONDUCE
HASTA TU CASA.
MOJADO, MOJADO DE TANTO LLORAR
SABIENDO QUE EN ALGÚN LUGAR TE
ESPERA UN BESO HACIENDO PAUSA
DESDE EL DÍA EN QUE TE MARCHASTE.
SI LA VISA UNIVERSAL SE EXTIENDE
EL DÍA EN QUE NACEMOS Y CADUCA
EN LA MUERTE PORQUE TE PERSIGUEN
MOJADO SI EL CÓNSUL DE LOS CIELOS
YA TE DIO PERMISO.
BUENO ESTA ROLA ESTA BIEN CHIDA Y LA NETA EL RITMO ESTA COMPLICADO
SI ALGUIEN NO LE ENTIENDE MANDENME UN CORREO A MI CORREO
QUE ES alexml_01mx@yahoo.com.mx o al alexml_01@hotmail.com
Y EN MI GRUPO PUEDEN ENCONTRAR LA CANCION PARA QUE LA ESCUCHEN ANTES DE
TIEMPO Y MI GRUPO ES http://mx.groups.yahoo.com/group/alexml_01mx/archivos
BUENO ESTA ES LA DIRRECION DE MI GRUPO ALLI LA ENCUENTRAN
PARA TODOS LOS MOJADOS SE LAS DEDICO, YA QUE YO TENGO A MUCHOS
AMIGOS MOJADOS Y LA NETA DICEN QUE ESTA ROLA ES LA PURA NETA.




[Mojado acordes][Mojado chords]
© LaCuerda.net · notícia legal · privacidade · es · en · pt · contato
DINAMICO