Tab Baixo de Rodrigo: la mano de dios
Rodrigo Bueno
La mano de dios [2000]
Esta es una de las mejores canciones
la instrumentacion es re linda
diego deberias de sentirte re alagado
te hicieron una muy buena cancion

Intro
E|--------------------|-------|--------------------|
A|--------------------|-------|--------------------|
D|--------------------|-------|--------------------|
G|--10h12-10-12-12h13-|-13h15-|-13h12-12h13h12h13--|

En una villa nacio
E|--1-|---|---|-----|---------|
A|----|-1-|---|-1-3-|---------|
D|----|---|-1-|-----|-3h5-----|
G|----|---|---|-----|----3h5--|

En un potrero forjo
E|-----------------|-----|----------------|-------|-------|----|
A|-----------------|-8-6-|----------------|-6-6-8-|-8-6-4-|-3--|
D|-----------8---8-|-----|--------------6-|-------|-------|----|
G|--8h10-8-86--56--|-----|-8h10-8-10/12---|-------|-------|----|

Grande Diego
E|------|-------------|--1--1--1----|-------------|---------|
A|------|--3--3--3--3-|-1--1--1--1--|--1--1--1--1-|---------|
D|--9/0-|-3--3--3--3--|-----------3-|-1--1--1--1--|-66-6----|
G|------|-------------|-------------|-------------|-----35--|

E|----------------|--1--1---1-----|--------------|-----------|
A|---3---3--3---3-|-1--1---1--1---|--1------1--1-|--------3--|
D|--3--3---3--33--|-------1----1--|-1--1---1--1--|-66-6------|
G|----------------|-------------3-|-----1-3------|-----35----|

En una villa nacio
E|--------------|--1--1--1--1-|---------------------|
A|---3--3--3--3-|-1--1--1--1--|--1--1--1--1133------|
D|--3--3--3--3--|-------------|-1--1--1--1-----6----|
G|--------------|-------------|-----------------35--|

En un potrero
E|--------------|--1--1--1--1-|-------------|------|------|-----|----|
A|---3--3--3--3-|-1--1--1--1--|--1--1--1--1-|------|-66-8-|-864-|-3--|
D|--3--3--3--3--|-------------|-1--1--1--1--|-6666-|------|-----|----|
G|--------------|-------------|-------------|------|------|-----|----|

A poco que
E|------|-------------|-------------|--4-----1--1-|-------|
A|------|--6--6--6--6-|--1--1--1--1-|-4--44-1--1--|-3333--|
D|--2h4-|-6--6--6--6--|-1--1--1--1--|-------------|-------|
G|------|-------------|-------------|-------------|-------|

y todo el pueblo
E|------|-------------|-------------|--4---------|---------------|
A|------|--6--6--6--6-|--1--1--1--1-|-4--44-1133-|--3--3--3-4----|
D|--2h4-|-6--6--6--6--|-1--1--1--1--|------------|-3--3--3----1--|
G|------|-------------|-------------|------------|---------------|

E|---------------|-------------|-------------------------|------|
A|---3--3--3---3-|-11-44-11-4--|-6----6------------------|--46--|
D|--3--3--3--33--|-----------3-|--585---------88-666-6---|-5----|
G|---------------|-------------|-------8/10-8---------35-|------|

E|------------|--1----1--|--------------|-----------|
A|---3--3-3---|-1-1-11-1-|--1-1----1-1--|--6--------|
D|--3-3--3-33-|----------|---1-1----1-1-|---66-6----|
G|------------|----------|-3------3-----|-8-----35--|

una crucial ilusion por
E|--------------|--1--1--1----|--------------------------|
A|---3--3--3--3-|-1--1--1--1--|--1--1--1--11-333---------|
D|--3--3--3--3--|-----------3-|-1--1--1--1-------5/6-----|
G|--------------|-------------|---------------------3h5--|

la fama le presento
E|--------------|--1--1--1--1-|-------------|------|------|-----|----|
A|---3--3--3--3-|-1--1--1--1--|--1--1--1--1-|------|-66-8-|-864-|-3--|
D|--3--3--3--3--|-------------|-1--1--1--1--|-6666-|------|-----|----|
G|--------------|-------------|-------------|------|------|-----|----|

A poco que
E|------|-------------|-------------|--4-----1--1-|-------|
A|------|--6--6--6--6-|--1--1--1--1-|-4--44-1--1--|-3333--|
D|--2h4-|-6--6--6--6--|-1--1--1--1--|-------------|-------|
G|------|-------------|-------------|-------------|-------|

y todo el pueblo
E|------|-------------|-------------|--4---------|---|-----------|
A|------|--6--6--6--6-|--1--1--1--1-|-4--44-1133-|-8-|-----------|
D|--2h4-|-6--6--6--6--|-1--1--1--1--|------------|---|-----------|
G|------|-------------|-------------|------------|---|-6h8-8/10--|

Solo
E|--------------------------------------|
A|--------------------------------------|
D|-------10-------------10-8--8h11-11-8-|
G|--8/10---10-8/10-10-8-----------------|

E|--------------------|---|---------|
A|--8-6---------------|---|---------|
D|--------------------|-6-|-6-8-10--|
G|-------8h10-8-10/12-|---|---------|

ole ole ole
E|----|---|---|---|----|----|---|-----|
A|--8-|-8-|---|---|----|--6-|---|-----|
D|----|---|-8-|-8-|-8--|-8--|-6-|-8---|
G|----|---|---|---|--8-|----|---|--5--|

ole ole ole
E|-------|---|-----|-----|-------------|---|----|
A|-------|---|-----|-----|-86----------|---|----|
D|-------|---|---8-|---8-|-------------|-6-|----|
G|--8h10-|-8-|-5---|-56--|---6h8-10/12-|---|-5--|

Y todo el pueblo
E|------|-------------|-------------|--4-----1--1-|-------|
A|------|--6--6--6--6-|--1--1--1--1-|-4--44-1--1--|-3333--|
D|--2h4-|-6--6--6--6--|-1--1--1--1--|-------------|-------|
G|------|-------------|-------------|-------------|-------|

y todo el pueblo
E|------|-------------|-------------|--4----------|
A|------|--6--6--6--6-|--1--1--1--1-|-4--44-1133--|
D|--2h4-|-6--6--6--6--|-1--1--1--1--|-------------|
G|------|-------------|-------------|-------------|

lleno de gloria
E|----------|---------|-----------|-----|----------|
A|------4-3-|-----4-3-|-33333333--|-----|-8--------|
D|--3-1-----|-3-1-----|-----------|-----|--8/10/5--|
G|----------|---------|-----------|-----|----------|

E|--------------|--1--1--1--1-|-----------------|--------|----------|
A|---3--3--3--3-|-1--1--1--1--|-6---------------|--------|----------|
D|--3--3--3--3--|-------------|--58-------------|-6-8-10-|----------|
G|--------------|-------------|----6-8h10-10/12-|--------|-10/12/5--|

E|----|--------|--------|---------|------6-|
A|--8-|--8---8-|--8---8-|--8---8--|--8-----|
D|----|-6-10---|-6-10---|-6-10----|-6-10---|
G|----|--------|--------|---------|--------|

E|---6--6-|--6--6-|--6--6-|--6-----|
A|--4-8---|-4-8---|-4-8---|-4-8-6--|
D|--------|-------|-------|--------|
G|--------|-------|-------|--------|

E|--------|-------|-------|-------|----------|-1--|
A|---6--6-|--6--6-|--6--6-|--6--6-|--------3-|----|
D|--4-8---|-4-8---|-4-8---|-4-8---|-66-6-----|----|
G|--------|-------|-------|-------|-----35---|----|

atte. miauricio gatolar
Este arquivo é o trabalho do seu trnascritor e representa sua interpretação pessoal da música. O material contido nesta página é para uso privado exclusivo, portanto, é proibida sua reprodução ou retransmissão, bem como seu uso para fins comerciais.
© LaCuerda.net · notícia legal · privacidade · es · en · pt · contato