Cifras para Violão e Guitarra » R »Rojo » Yo soy la revolución (Tab)

Yo soy la revolución
Rojo

Letras, cifras e tablaturas para violão, guitarra, piano, ukulele e baixo

  • Bm7
    Ser ultimo es ser primero perder es encontrar
    tener hambre es ser saciado servir es autoridad
    
    Bm7     E9     Gmaj7     D
    Esta vez no parare no callare pues
    Bm7     E9     Gmaj7       D       F#m7
    esta ves ya descubrí que ahora es tiempo
    
    Bm7  D   A     F#m
      Yo soy la revolución
    Bm  D   A     F#m
      Yo soy la revolución
    Bm  D   A     F#m
      Yo soy la revolución
    Bm  D   A     F#m
      Yo soy la revolución
    
    Bm7
    Ser pobre es ser millonario y el morir vivir
    
  • Bm
    Ser ultimo es ser primero perder es encontrar
    tener hambre es ser saciado servir es autoridad
    
    Bm     Em     G             D
    Esta vez no parare no callare pues
    Bm     Em     G             D
    esta ves ya descubrí que ahora es tiempo
    
    Bm  D   A     F#m
      Yo soy la revolución
    Bm  D   A     F#m
      Yo soy la revolución
    Bm  D   A     F#m
      Yo soy la revolución
    Bm  D   A     F#m
      Yo soy la revolución
    
    Bm
    Ser pobre es ser millonario y el morir vivir
    
  • Intro: Bm7
    
    Bm7        D              Bm7        D
    Ser ultimo es ser primero perder es encontrar
    Bm7         D               Bm7         D
    tener hambre es ser saciado servir es autoridad
    
    Pre-coro
    Bm7     E9     Gmaj7     D
    Esta vez no parare no callare pues
    Bm7     E9     Gmaj7       D       F#m7
    esta ves ya descubrí que ahora es tiempo
    
    Coro
    Bm7  D   A     F#m
      Yo soy la revolución
    Bm  D   A     F#m
      Yo soy la revolución
    Bm  D   A     F#m
      Yo soy la revolución
    
  • Es fácil esta canción y sobre todo muy buena,
    escuchenla muy bien
    
    
    
    ***Esta es la base para la intro y para toda la estrofa
    
    G]-------------------------------------:---------------
    D]--------4-5--------------------------:4-5------------
    A]---2------------------2------------2-:---------------
    E]------------3-3-3-5----5---3---5-----:-----3-3-3-----
    
    
    
    
    G]-----------------------------------------------------
    D]-----------------------------------------------------
    A]---2--------2----------------------------------------
    E]-----5--3-5------------------------------------------
    
    
    
    ***Para el PRE coro
    
    Esta vez no parare….
    
    G]-----------------------------------------------------
    D]----------------------------------------12-12-12-12--
    A]--2-2-2-2-s-----7-7-7-7s---10-10-10-10s--------------
    E]-----------------------------------------------------
    
    
    ****Y para el coro solo marca con la Batería muy sencillo
    
    
    Yo soy la revolución
    
    G]-----------------------------------------------------
    D]-----
  • “p” = Popping; “h” = Hammer; “s” = slide
    :Intro:(Batería Sintetizada)
    :Slap de Bajo:
    
    G]:----2p-h4----:
    D]:-------------:
    A]:-------------:
    E]:-------------:
    
    :Intro:
    
    G]:-----------:--------------:-----------:---------------:
    D]:---4-5-4---:--------------:---4-5-4---:---------------:
    A]:2----------:-------2------:2----------:-------2-------:
    E]:----------2:2--3-5---5-3-5:----------2:2--3-5----5-3-5:
    
    G]:-----------:--------------:-----------:---------------:
    D]:---4-5-4---:--------------:---4-5-4---:---------------:
    A]:2----------:-------2------:2----------:-------2s------:
    E]:----------2:2--3-5---5-3-5:----------2:2--3-5---------:
    
    :Estrofa:
    
    Ser ultimo, es ser primero...
    
    G]:-----------:--------------:-----------:---------------:
    D]:---4-5-4---:--------------:---4-5-4---:---------------:
    A]:2----------:-------2------:2----------:-------2-------:
    E]:----------2:2--3-5---5-3-5:----------2:2--3-5----5-3-5:
    
    Tener hambre es ser saciado...
    
    G]:-----------:--------------:----------
  • +
    ¡Colabora con nosotros!
    Envíanos tu versión de esta canción

Letra de Yo soy la revolución
Ser ultimo es ser primero perder es encontrar
tener hambre es ser saciado servir es autoridad
Esta vez no parare no callare pues
esta ves ya descubrí que ahora es tiempo
Yo soy la revolución
Yo soy la revolución
Yo soy la revolución
Yo soy la revolución
Ser pobre es ser millonario y el morir vivir
ser perseguido es ser recompensado y dar es recibir
Esta vez no parare no callare pues
esta ves ya descubrí que ahora es tiempo
Yo soy la revolución
Yo soy la revolución
Yo soy la revolución
Yo soy la revolución
cuando todo se acaba es que comienzo la fe tu realidad
hamriento y sediento seguire
Esta vez no parare no callare pues
esta ves ya descubrí que ahora es tiempo
Yo soy la revolución
Yo soy la revolución
Yo soy la revolución
Yo soy la revolución
(uoh oh sigue la misma secuencia del coro)
pAZ a VOSOTRoS Y QUE lES sEA d bEnDIcIOn
100X100TO Aliento de Vida




[Yo soy la revolución acordes][Yo soy la revolución chords]
© LaCuerda.net · notícia legal · privacidade · es · en · pt · contato
DINAMICO