Cifras para Violão e Guitarra » S »Soda Stereo » Te hacen falta vitaminas (Tab)

Te hacen falta vitaminas
Soda Stereo

Letras, cifras e tablaturas para violão, guitarra, piano, ukulele e baixo

  • INTRO: (LA - LAsus4) X6  (DO - SOL - LA)
    
                           LA
    Por mas que tengas los volumenes al taco,
           LA                      DO        SOL     LA
    Exprimiendo tus membranas, saltando como una rana.
                               LA
    Por mas que intentes esquivarlo en algun vuelo
        LA                        DO      SOL       LA
    Hay algo que te raya, algo anda mal, mal, algo falla.
             LA                         LA
    Dando vueltas por tu cuarto sin sentido,
                       DO         SOL     LA
    Esperando algun milagro y no pasa nada.
    
     SIm  RE         SOL       LA
    ¡Oye! te hacen falta vitaminas
     SIm  RE         SOL       LA
    ¡Oye! te hacen falta vitaminaaaas.
    
    
  • Intro: (LA - LA - DO  SOL - LA*)
    
                           LA
    Por mas que tengas los volumenes al taco,
           LA                      DO        SOL     LA* 
    Exprimiendo tus membranas, saltando como una rana.
                               LA       
    Por mas que intentes esquivarlo en algun vuelo
        LA                        DO      SOL       LA*
    Hay algo que te raya, algo anda mal, mal, algo faya. 
             LA                         LA
    Dando vueltas por tu cuarto sin sentido,
                       DO         SOL     LA*
    Esperando algun milagro y no pasa nada.
     SI  RE         SOL       LA 
    ¡Oye! te hacen falta vitaminas
     SI  RE         SOL       LA
    ¡Oye! te hacen falta vitaminaaaas.
    
    (LA - LA - DO  SOL - LA*)
    
  •     A        G#  A            C     G      A*
        |        |   |            |     |      |
     ||-5--5--5--4-|-5--5--5--5-|-8--8--7--7-|-5--||
     ||-5--5--5--4-|-5--5--5--5-|-8--8--8--8-|-5--||
     ||-6--6--6--5-|-6--6--6--6-|-9--9--7--7-|-6--||
     ||------------|------------|------------|----||
     ||------------|------------|------------|----||
     ||------------|------------|------------|----||
    
    
    ** los acordes con * al final, los tocas y los tapas con la mano
    
    ** en las estrofas hace lo mismo que en la 2da parte de
       la intro, pero pongo los acordes para que se guien **
    
    
                               A
     Por mas que tengas los volumenes al taco,
           A                        C        G         A*
     Exprimiendo tus membranas, saltando como una rana
    
  • Maty Hoppus
    
    Soda Stereo - Te Hacen Falta Vitaminas
    
      INTRO (+0:10 min)
    g----------------------------------------------------------------||
    d----------------------------------------------------------------||
    a-0-0-0-0-0-0-0-0-0-0-0-0-0-0-0-0-0-0-0-0-0-0-0-0-0-0-0-0-0-0-0-0||
    e----------------------------------------------------------------||
    
    
      PUNTEO BASS (+15 min)
    g--------------------------------------------------------|
    d--------------------------------------------------------|
    a-12-12-10-12-10-12---10-12-12-10-12-10-12---10-12-12-12-|
    e--------------------------------------------------------|
    
    g-------------------------------||
    d-------------------------------||
    a-10-12-12-12--10-12-12-12-12/17||
    e-------------------------------||
    
    
      ESTROFA (+0:20 min)
    g------------------------------------------|
    d-----2-4-2------2-4-2---------------------|
    a-0-4--------0-4--------3-3-3-3------------| X 2
    e-------------------------------3-3-3-3--5-|
    
    g------------------------------------------
  • Intro
    
    g -------------||
    d -------------||
    a -------0-----||
    e -------------||
    
    Verso y Requinto
    
    g ------------------------------------------------||
    d -------2/4/2--------2/4/2-----------------------||
    a -0--4---------0--4---------3-3--3-------------0-||
    e ------------------------------------3-3--3------||
    
    fill  2
    
    g ----------------------||
    d -7-7-7-7-7-7-7-7-7----||
    a ----------------------||
    e ----------------------||
    
    Coro
    
    g --------------------------------------------------||
    d --------------------------------------------------||
    a -2--2--2--2--5--5--5--5---------------------------||
    e -------------------------3--3--3--3--5--5--5--5---||
    
    Pre-Requinto
    
    g ---------6-6-9-9---------4-4-7-7-------------------
    d -7-7-7-7---------5-5-5-5-----------------4-4-7-7---
    a ---------------------------------5-5-5-5-----------
    e ---------------------------------------------------
    
    g --------------------||
    d ---------6-6-9-9----||
    a -7-7-7-7------------||
    e --------------------||
    
    Puente
    
    g --
  • +
    ¡Colabora con nosotros!
    Envíanos tu versión de esta canción
  • Tutorial
    HD
    Vitaminas - SODA STEREO MVV (tutorial)
    3:03

Letra de Te hacen falta vitaminas
Por mas que tengas los volumenes al taco,
Exprimiendo tus membranas, saltando como una rana.
Por mas que intentes esquivarlo en algun vuelo
Hay algo que te raya, algo anda mal, mal, algo falla.
Dando vueltas por tu cuarto sin sentido,
Esperando algun milagro y no pasa nada.
¡Oye! te hacen falta vitaminas
¡Oye! te hacen falta vitaminaaaas.
Depresiones, obsesiones,
Hasta cuando seguiran esas canciones
Y ¿que esperas para soltarte, para animarte?
O ¿supones que alguien viene a despertarte?
¡Oye! te hacen falta vitaminas (vitamina huu)
¡Oye! te hacen falta vitaminas.
Y va a ser mejor, que te levantes de una vez.




[Te hacen falta vitaminas acordes][Te hacen falta vitaminas chords]
© LaCuerda.net · notícia legal · privacidade · es · en · pt · contato
DINAMICO