Cifras para Violão e Guitarra » T »Tercer Cielo » Tu amor no es de este mundo (Tab)

Tu amor no es de este mundo
Tercer Cielo

Letras, cifras e tablaturas para violão, guitarra, piano, ukulele e baixo

  • Intro: D - A - Em7 - G x2
    
              D A             Em7
    Quiero saber cuál es el motor
           G       D          A          Em7     G
    Que mueve tu amor para que sea tan intenso
    Bm            F#m                 G
    Qué es lo que tengo que me amas tanto
                 D               Bm      F#m
    Que aunque tantas veces he fallado
                   G
    Y me has perdonado
        D A                Em7
    No sé   qué miraste en mi
         G              D
    Qué tengo de especial
           A          Em7     G
    Para qué te entregaras así
    Bm           F#m                  G
    Que te habrá hecho descender del cielo
    
  • >>INTRO   D-A-Bm-G D-A-G
    
              D-A         Bm
    Quiero saber  cuál es el motor
        G              D          A            G
    Que mueve tu amor   para que sea tan intenso
     Bm            A                 G
    Qué es lo que tengo que me amas tanto
                D                  Bm  A
    Que aunque tantas veces he fallado
                   G
    Y me has perdonado
    
         D-A             Bm
    No sé qué miraste en mi
                    G
    Qué tengo de especial
     D             A       G
    Para qué te entregaras así
     Bm           A                   G
    
  •     D        A     Bm
     Quiero saber cuál es el motor
            G       D     A            G
    Que mueve tu amor para que sea tan intenso
     D              A                  Bm
    Qué es lo que tengo que me amas tanto
       G                   Bm
    Que aunque tantas veces he fallado
     A               G
    Y me has perdonado
    
    D         A            Bm
    No sé qué miraste en mi
     G                    D
    Qué tengo de especial
        A          Bm            G
    Para qué te entregaras así
     D             A                        Bm
    Que te habrá hecho descender del cielo
      A                         Bm
    
  •     RE        LA          MIm SOL
    E----------------------------------------10-------
    B-----5s7-7-5---5---5-5-7-5----------8-7-11-------
    G-------------7---7---------7-4------9-7----------
    D-------------------------------------------------
    A-------------------------------------------------
    E-------------------------------------------------
    
       RE             LA                MIm SOl
    E----12s14-14-12----12---12-12-14-12--------------
    B----------------15----15------------15-12--------
    G-------------------------------------------------
    D-------------------------------------------------
    A-------------------------------------------------
    E-------------------------------------------------
    
                                             VERSO 1
             RE  LA           MIm
    Quiero saber cuál es el motor
        SOL       RE
    
  •       D      A              Bm  G
    E--------------------------------------------
    B-----5s7-7-5---5---5-5-7-5------------------
    G-------------7---7---------7-4--------------
    D--------------------------------------------
    A--------------------------------------------
    E--------------------------------------------
    
    
         D           A                        G
    E----12s14-14-12----12---12-12-14-12---------
    B----------------15----15------------15-12---
    G--------------------------------------------
    D--------------------------------------------
    A--------------------------------------------
    E--------------------------------------------
    
    ESTROFA I
    
              D-A         Bm
    
  • +
    ¡Colabora con nosotros!
    Envíanos tu versión de esta canción

Letra de Tu amor no es de este mundo
Quiero saber cuál es el motor
Que mueve tu amor para que sea tan intenso
Qué es lo que tengo que me amas tanto
Que aunque tantas veces he fallado
Y me has perdonado
No sé qué miraste en mi
Qué tengo de especial
Para qué te entregaras así
Que te habrá hecho descender del cielo
Haber vivido tanto sufrimiento
Si yo no lo merezco
>>Coro
Tu amor no es de este mundo
No hay amor humano comparable al tuyo
Es más grande que el planeta
Es más bello que una estrella
Agradezco tanto que te fijaste en mi
Y quiero adorarte
Porque mi alma es incansable
Cada día quiere agradecerte más
Y darte toda gloria
Brindarte toda honra
Porque a Ti te pertenece
>>Estrofa II
No sé qué miraste en mi
Qué tengo de especial
Para qué te entregaras así
Que te habrá hecho descender del cielo
Haber vivido tanto sufrimiento
Si yo no lo merezco
>>Coro
Tu amor no es de este mundo
No hay amor humano comparable al tuyo
Es más grande que el planeta
Es más bello que una estrella
Agradezco tanto que te fijaste en mi
Y quiero adorarte
Porque mi alma es incansable
Cada día quiere agradecerte más
Y darte toda gloria
Brindarte toda honra
Porque a Ti te pertenece
Quiero saber cuál es el motor
Que mueve tu amor para que sea tan intenso
**Espero que les sirva, Bendiciones!**




[Tu amor no es de este mundo acordes][Tu amor no es de este mundo chords]
© LaCuerda.net · notícia legal · privacidade · es · en · pt · contato
DINAMICO