Cifras para Violão e Guitarra » V »Victor Yturbe » Caprichosa (Tab)

Caprichosa
Victor Yturbe

Letras, cifras e tablaturas para violão, guitarra, piano, ukulele e baixo

  •       F                   C      G                       C
    e|----------------5--3-3--1------3-3--2-3--1-1--------------|
    B|----6--5-6-5-6--6--5-5--1--5---5-5--3-2--1-1---5-5--3--1--|
    G|-5--5--5-5-5-5-------------5-------------------5-5--4--0--|
    D|-7--------------------------------------------------------|
    A|----------------------------------------------------------|
    E|----------------------------------------------------------|
    
    e|------------------------------|
    B|------------------------------|
    G|-2-2--0-0---------------------|
    D|-----------2-2----------------|
    A|----------------3-------------|
    E|------------------------------|
    
    C                G            C
    Yo quiero que comprendas vida mía
                                       G
    que todo entre tu y yo se ha terminado,
         F
    
  • (INTRO: F C G C)
    
    C          G           C
    Yo quiero que comprendas vida mía
            G
    que todo entre tu y yo se ha terminado,
         F
    que fue un sueño de amor no realizado
         G    C
    por culpa de tu ingenua cobardía.
    
    C               G             C
    Y ahora que se apaga el alma mía
        C7                              F
    al ver que nuestro sueño fue un fracaso
                                  C
    me voy como se va la luz del día
      G     C
    cuando hasta el mismo sol ni le hace caso.
    
    
  • +
    ¡Colabora con nosotros!
    Envíanos tu versión de esta canción

Letra de Caprichosa
Yo quiero que comprendas vida mía
que todo entre tu y yo se ha terminado,
que fue un sueño de amor no realizado
por culpa de tu ingenua cobardía.
Y ahora que se apaga el alma mía
al ver que nuestro sueño fue un fracaso
me voy como se va la luz del día
cuando hasta el mismo sol ni le hace caso.
Hoy no perfuma el aire ni una rosa,
hoy lloran mil mariachis mi tristeza,
hoy me voy de tu lado caprichosa,
tu falsa sociedad no me interesa.
(REQUINTO: F C G C)
Hoy no perfuma el aire ni una rosa,
hoy lloran mil mariachis mi tristeza,
hoy me voy de tu lado caprichosa,
tu falsa sociedad no me interesa.




[Caprichosa acordes][Caprichosa chords]
© LaCuerda.net · notícia legal · privacidade · es · en · pt · contato
DINAMICO