Cifras para Violão e Guitarra » 0-9 »31 minutos » Calcetín con Rombos Man (Tab)

Calcetín con Rombos Man
31 minutos

Letras, cifras e tablaturas para violão, guitarra, piano, ukulele e baixo

  • |--------------------------|
    |-11^-11^-11^-11^-11^------|
    |-13--13--13--12--12-------| I N T R O
    |--------------------------|
    |--------------------------|
    |--------------------------|
    
    
    |------------------------------------------------------------------|
    |-----------------------------------9------------------------------|
    |-8s10--8-6-8-6------6-8-8s10-8-6-8---8s10~----6-8-8s10-8-6-8-6----|
    |---------------8~-8-------------------------8------------------8~-|
    |------------------------------------------------------------------|
    |------------------------------------------------------------------|
    
    
    |-------------9----9-11-11^--9-------|
    |--------9-11---11-------------11----|
    |--8s10------------------------------|
    |------------------------------------|
    
  • Es un punteo muy simple, practiquenlo...
    
    v=vibrato
    b=Bend (levantamiento) 
    /=Slide
    h=Hammer
    p=Pull of
    
    
    Calcetin con Rombos Man
    
    
    e|-----------------|-----------------------------|
    B|-----------------|--------------------10-------|
    G|-9b11-9-7-9-7----|----7-9-9b11-9-7-9-----9b11v-|
    D|--------------9v-|/9---------------------------|
    A|-----------------|-----------------------------|
    E|-----------------|-----------------------------|
    
    
    
    e|-----------------------|-------------------13-12-10-----|
    B|-----------------------|----------------------------12v-|
    G|---7-9-9b11-9-7-9-7----|---7-9-9/11-9-------------------|
    D|/9------------------9v-|-9------------12-9--------------|
    A|-----------------------|--------------------------------|
    E|-----------------------|--------------------------------|
    
    
    
    e|-12h13-12-10-12-10v-|-12h13-12-10----10v-|-12h13-12-10-12-10v-|
    B|--------------------|-------------12-----|--------------------|
    G|--------------------|----------
  •    Intro		1ª Parte
    e|-6-6-6-6-6-6-|-1-----------|-------1-------4-1-|
    B|-------------|---4-2-4-2---|---2-4---4-2-4-----|
    G|-------------|-----------3-|-3-----------------|
    D|-------------|-------------|-------------------|
    A|-------------|-------------|-------------------|
    E|-------------|-------------|-------------------|
    
       
    e|-------1-----------|-6-8-9-9----9-11-13-11-9----|
    B|---2-4---4-2-4-2---|---------11--------------11-|
    G|-3---------------3-|----------------------------|
    D|-------------------|----------------------------|
    A|-------------------|----------------------------|
    E|-------------------|----------------------------|
    
       Coro
    e|-13-11-9-11-9-|-13-11-9----9-|-13-11-9-11-9-|----9-11-13-13-11-9-6-|
    B|--------------|---------11---|--------------|-11-------------------|
    G|--------------|--------------|--------------|----------------------|
    D|--------------|--------------|--------------|----------------------|
    A|--------------|--------------|-----------
  • +
    ¡Colabora con nosotros!
    Envíanos tu versión de esta canción






[Calcetín con Rombos Man acordes][Calcetín con Rombos Man chords]
© LaCuerda.net · notícia legal · privacidade · es · en · pt · contato
DINAMICO