Cifras para Violão e Guitarra » 0-9 »31 minutos » Freddy Turbina - Equilibrio Espiritual (Tab)

Freddy Turbina - Equilibrio Espiritual
31 minutos

Letras, cifras e tablaturas para violão, guitarra, piano, ukulele e baixo

  • SIm  Riff: VI-2-4  V-4-2-2
    
    Sí hoy un día muy especial  (¿Por qué?)
    Por que en la mañana le saqué las rueditas chicas a mi bicicleta (Oh)
    
    I-5-5-5-5-4-4-2 (primera cuerda apretada en espacios, 5 y 4 según se indica)
    
    SIm (Haciendo el Riff)
    Lo mejor que me ha pasado en mi vida 
    fue sacarle Las rueditas a mi bicicleta
    Ahora alcanzo mayor velocidad y las chicas se derriten
    Cuando me ven pasar
    
        LA 
    Soy genial (Si él es genial) 
       MI 
    Inmortal, Ya no existen ruedas chiquititas 
    
    SIm 
    Soy Fredy Turbina al volante y cuidado niños que quemo
    
  • Bm5
    Si, hoy es un dia muy especial
    ¿por que?
    Porque hoy en la mañana le saqué
    las rueditas chicas a mi bicicleta
    ohhhh
    
    Bm5
    Lo mejor que me ha pasado en mi vida
    fue sacarle las rueditas a mi bicicleta
    ahora alcanzo mayor velocidad
    y las chicas se derriten cuando me ven pasar
    
            A5
    Soy genial(si eres genial)
     E5
    inmortal, ya no existen ruedas chiquititas
    
      Bm5
    Soy Freddy Turbina al volante
    
  • B5
    Si, hoy es un dia muy especial
    ¿por que?
    Porque hoy en la mañana le saqué
    las rueditas chicas a mi bicicleta
    ohhhh
    B5
    Lo mejor que me ha pasado en mi vida
    fue sacarle las rueditas a mi bicicleta
    ahora alcanzo mayor velocidad
    y las chicas se derriten cuando me ven pasar
    A5
    Soy genial[si eres genial]
    E5
    inmortal, ya no existen ruedas chiquititas
    B5
    Soy Freddy Turbina al volante
    y cuidado niños, que quemo
    B5
    Ya no mas verguenza al pedalear
    
  • Verso e Intro
    
    G|----------------7------------------
    D|----7h9-------7---9-9------7------7
    A|---------7h9----------7h9----7h9---
    E|--7--------------------------------
    
    Coro
    
    G|------------------------------------------------------
    D|------------------------------------------------------
    A|------------------------------7----7-7-7----7----7-7-7
    E|--5----5-5-5----5----5-5-5----------------------------
    
    Punte
    
    G|------------------------------------------
    D|------------------------------------------
    A|--4-4-4-2-4-2-4-4-4-2-4-5-5-5-3-5-3-5-5-3-
    E|------------------------------------------
    
    G|------------------------------------------
    D|------------------------------------------
    A|-5-7-7-5-7-5-7-7-7-5-7-9-9-9-7-9-7-9-9-7-9
    E|------------------------------------------
    
    Final
    
    G|------------------------------------------
    D|------------------------------------------
    A|--4-4-4-2-4-2-4-4-4-2-4-5-5-5-3-5-3-5-5-3-
    E|------------------------------------------
    
    G|--------------------------------------
  • +
    ¡Colabora con nosotros!
    Envíanos tu versión de esta canción

Letra de Freddy Turbina - Equilibrio Espiritual
Si, hoy es un dia muy especial
¿por que?
Porque hoy en la mañana le saqué
las rueditas chicas a mi bicicleta
ohhhh
Lo mejor que me ha pasado en mi vida
fue sacarle las rueditas a mi bicicleta
ahora alcanzo mayor velocidad
y las chicas se derriten cuando me ven pasar
Soy genial(si eres genial)
inmortal, ya no existen ruedas chiquititas
Soy Freddy Turbina al volante
y cuidado niños, que quemo
Ya no mas verguenza al pedalear
ningún obstaculo me podrá frenar
tengo un nuevo concepto de felicidad
alcanzé mi equilibrio espiritual
Soy genial(si eres genial)
inmortal, ya no existen las rueditas
Nunca mas, nunca, rodillas peladas
nunca mas nunca, verguenza en la calle
nunca mas nunca, risas de niños
nunca mas nunca, dudas de nadie
Oh, pero si es el famoso Freddy Turbina...
Soy genial...
Inmortal, eres inmortal
soy genial, ya no existen las rueditas
Nunca mas nunca...
Siempre por siempre mi pelo al aire
Sobre dos ruedas, domino la calle
no necesito........mas grandes
no necesito, rueditas papaaaa




[Freddy Turbina - Equilibrio Espiritual acordes][Freddy Turbina - Equilibrio Espiritual chords]
© LaCuerda.net · notícia legal · privacidade · es · en · pt · contato
DINAMICO