Cifras para Violão e Guitarra » 0-9 »La 5a. estación » El sol no regresa (Tab)

El sol no regresa
La 5a. estación

Letras, cifras e tablaturas para violão, guitarra, piano, ukulele e baixo

  •            D#                G#
    Hace días perdí, en alguna cantina,
                    A#           G#          D#
    La mitad de mi alma, mas el quince de propina-á.
    
               D#                          G#
    No es que sea el alcohol, la mejor medicina,
                    A#          G#           D#
    Pero ayuda a olvidar, cuando no-vez, la salida.
    CORO:
                      G#                A#
    Hoy te intento contar, que todo va bien,
                        D#    Cm
    Aunque no, te lo crea-as.
                      G#
    Aunque a estas alturas,
                 A#                    D#
    Un último esfuerzo, no valga la pena-á,
                       G#          A#                D#      Cm
    Hoy los buenos recuerdos, se caen por las, escalé-raaas,
    
  •              D                  G
    Hace días perdí en alguna cantina
                     A           G         D
    la mitad de mi alma, más el 15 de propina
                          D                  G
    no es que sea el alcohol, la mejor medicina
                      A               G         D
    pero ayuda a olvidar, cuando no ves la salida.
    
    
    CORO:
                        G
    Hoy te intento contar
                  A                     D     Bm
    que todo va bien aunque no te lo creas
                        G
    aunque a estas alturas
                    A                D
    un último esfuerzo no valga la pena.
    
    
  • Intro: G,A,D,D7,G,A,D,G/D
    
                D
    Hace dias perdi
                 G
    en alguna cantina,
                     A
    la mitad de mi alma,
              G           D
    más el quince de propina,
                        D
    no esque sea el alcohol,
                  G
    la mejor medicina,
                     A
    pero ayuda a olvidar,
             G             D    D7
    cuando no ves la salida...
    
    ESTRIBILLO~
    
  •              D                 G
    Hace días perdí en alguna cantina
                     A          G           D
    la mitad de mi alma, más el 15 de propina
                          D                   G
    no es que sea el alcohol, la mejor medicina
                     A           G             D      D7
    pero ayuda a olvidar, cuando no ves la salida.
    
    CORO 1:
                      G
    Hoy te intento contar
                  A                    D     Bm
    que todo va bien aunque no te lo creas
                      G
    aunque a estas alturas
                  A                 D       D7
    un último esfuerzo no valga la pena.
                           G
    Hoy los buenos recuerdos
    
  • e --15-15-15-13-11-11----15-15-15-13-11-8---
    B ------------------------------------------
    G ------------------------------------------
    D ------------------------------------------
    A ------------------------------------------
    E ------------------------------------------
    
    e --8-8-8--10-11-10-8-8-6-6-----------------
    B ------------------------------------------
    G ------------------------------------------
    D ------------------------------------------
    A ------------------------------------------
    E ------------------------------------------
    
    Entra la Guitarra:
          0:20
    e ---/8-8-8-6-4-4---4/8-8-6-6-6-8-6-4-4-3---
    B ------------------------------------------
    G ---/8-8-8-7-5-5---5/8-8-7-7-7-8-7-5-5-3---
    D ------------------------------------------
    
  •                  D#               G#
    e ------------------------------------
    B ----8-8-8--6----------8-8-8--6------
    G --------------8-8---------------8-5-
    D ------------------------------------
    A ------------------------------------
    E ------------------------------------
                    A#     G#  D#
    e -----------------------------------
    B -----------------------------------
    G ----5-5-5-7-8-7-----3-5---5-3-3----
    D -----------------------------------
    A -----------------------------------
    E -----------------------------------
    
    
                  G#       A#        D#
    e ---/8-8-8-6-4-4---4-/8-8-6-6-6-8-6-4-4-3--
    B ------------------------------------------
    G ---/8-8-8-7-5-5---5-/8-8-7-7-7-8-7-5-5-3--
    
  • INTRO
    
      EL TETALLE EES QUE EMPIEZA COMO BALADA RANCHERA
     ACORDES  D#,G#,A#
    G)----------------------------------------------------------------------
    D)----------------------------------------------------------------------
    A)--6---6----------------------6----6-----------------------------------
    E)-----6-----4---4----6---4--------6------------------------------------
    B)--------------4--------6----------------------------------------------
    
     ACORDES G#,A#,D#,C
    G)----------------------------------------------------------------------
    D)----------------------------------------------------------------------
    A)--------------------------------6--6--66-6666--3--3--33-3333----------
    E)--4--4--44-4444--6--6--66-6666----------------------------------------
    B)----------------------------------------------------------------------
    
     ACORDES  G#,A#,D#
    G)----------------------------------------------------------------------
    D)----------------------------------------------------------------------
    A)-----
  • olas aqui les dejo
    el pab para bajo
    tmb encontraran mi tab para guitarra
    para 1º y 2º
    esta re facil
    
    bueno esta ba pa toa la gente d tacna-peru
    del grupo k`librado si quieren ubicarnos aqui les dejo muestro msn
    
    ALEXIS ed( 1ºguitarra )     alexemp@hotmai.com
    elard (bajo)                elard_19_1@hotmail.com
    kevin ( 2º guitarra )       ortiz90@.....
    tamos buscando vocalista
    hombre o mujer.....disfruten
    
    en el intro con trompeta no entra
    en tra a la mitad maso
    d la guitarra:
    Intro: 0:22
           G#   A#   D#
    G ------------------------------------------
    D -----6-66---------------------------------
    A ---------------6-66-6-66------------------x2
    E ----------6-66----------------------------
    
    estrofa:    0:37
       D#        G#        A#   G#   D#
    G ---------------------------------------------
    D -----------6-66-6-66------6-66---------------
    A -6-66-6-66---------------------6-66-6-66-----x2
    E ---------------------6-66--------------------
    
    coro:   1:07
       G#   A#   D#   Cm   G#   A#   D#
    G -1-
  • +
    ¡Colabora con nosotros!
    Envíanos tu versión de esta canción
  • Tutorial
    Como tocar El sol no regresa - La quinta estacion (Acordes Tutorial Guitarra)
    6:43
  • Tutorial
    Aprende a tocar EL SOL NO REGRESA de la Quinta Estación 5a en guitarra acordes y letra
    3:52
  • Tutorial
    Como tocar El Sol No Regresa en guitarra de La Quinta Estación MUY FACIL / Novatos y principiantes
    4:09
  • Tutorial
    Como tocar - El sol no regresa de La Quinta Estacion - Tutorial Guitarra (HD)
    4:34

Letra de El sol no regresa
Hace días perdí en alguna cantina
la mitad de mi alma, más el 15 de propina
no es que sea el alcohol, la mejor medicina
pero ayuda a olvidar, cuando no ves la salida.
Hoy te intento contar
que todo va bien aunque no te lo creas
aunque a estas alturas
un último esfuerzo no valga la pena.
Hoy los buenos recuerdos
se caen por las escaleras
y tras varios tequilas
las nubes se van
pero el sol no regresa.
Estrofa 2:
Sueños de habitación frente un hotel de carretera
y unas gotas de lluvia que guardo en esta maleta
ruedan por el colchón de mi cama ya desierta
es la mejor solución para el dolor de cabeza.
Hoy te intento contar
que todo va bien aunque no te lo creas
aunque a estas alturas
un último esfuerzo no valga la pena.
Hoy los buenos recuerdos
se caen por las escaleras
y tras varios tequilas
las nubes se van
pero el sol no regresa
y tras varios tequilas
las nubes se van
pero el sol no regresa.




[El sol no regresa acordes][El sol no regresa chords]
© LaCuerda.net · notícia legal · privacidade · es · en · pt · contato
DINAMICO