Cifras para Violão e Guitarra » A »Abuelos de la Nada » Lunes por la Madrugada (Tab)

Lunes por la Madrugada
Abuelos de la Nada

Letras, cifras e tablaturas para violão, guitarra, piano, ukulele e baixo

  • LA DO#m RE SOL MI (4 Veces)
    
    
    LA                        DO#m
    Lunes por la madrugada yo cierro los ojos y veo tu cara
    RE                      SOL       MI
    que sonríe cómplice de amor oh oh oh
    LA                      DO#m
    Días en la carretera yo siento aquí dentro la emoción
         RE              SOL       MI
    de haberte dado lo mejor oh oh oh
    
    
    (SIm) RE          LA         DO#m
    Yo no se si es en vano este amor
    SIm
    aquí no hay luces de cera
      SOL                     LA
    y algo en mi no se serena no
                DO#m RE SOL MI
    
  •                  A
    e--------0----------------0----------
    B-----2--------2-------2--------2----
    G-----------4----------------4-------
    D------------------------------------
    A--0----------------0----------------
    E------------------------------------
    
                    C#m
    e------------------------------------
    B--------5----------------5----------
    G-----6-----4--6-------6-----4--6----
    D------------------------------------
    A--4----------------4----------------
    E------------------------------------
    
                    D
    e--------5----------------5----------
    B--------------5----------------5----
    G-----7-----7----------7-----7-------
    
  •    A                C#m   D                    G            E
    
    E|-------------------------------9-9--10--9--5/9--10--9--5--7-
    B|-10~--9--10--9--7--5~---7-7-7-------------------------------
    G|------------------------------------------------------------
    D|------------------------------------------------------------
    A|------------------------------------------------------------
    E|------------------------------------------------------------
    
       A                C#m   D                    G            E
    
    E|-------------------------------9-9--10--9--5/9--10--9--5--7/12-
    B|-10~--9--10--9--7--5~---7-7-7----------------------------------
    G|---------------------------------------------------------------
    D|---------------------------------------------------------------
    A|---------------------------------------------------------------
    E|---------------------------------------------------------------
    
    
    SOLO DE SAXOFON CON LOS MISMOS ACORDES INICIALES
    
  • ***************************************************************
    Como vi que a la otra version le faltaban un par de cosas aca
    la mando completa:
    ***************************************************************
    
    Base en general(Intro, Verso, Solo de saxo):
    
    |----------------||----------------||----------------||----------------|
    |----------------||----------------||----------------||----------------|
    |----------------||----------------||4-4-4-4-4-4-4-4-||4-4-4-4-4-4-4-4-|
    |5-5-5-5-5-5-5-5-||5-5-5-5-5-5-5-5-||----------------||----------------|
    
    |----------------||----------------||----------------||----------------|
    |----------------||----------------||----------------||----------------|
    |5-5-5-5-5-5-5-5-||5-5-5-5-5-4-----||----------------||----------------|
    |----------------||-----------5-3-3||3-2-3-0-0-2-0-3-||0-5-------------|
    
    
    Estribillo:
    |----------------||----------------||----------------||----------------|
    |----------------||----------------||----------------||----------------|
  • +
    ¡Colabora con nosotros!
    Envíanos tu versión de esta canción
  • Tutorial
    HD
    Explicativo - Como tocar "Lunes por la madrugada" en el bajo tutorial#70
    7:13

Letra de Lunes por la Madrugada
Lunes por la madrugada yo cierro los ojos y veo tu cara
que sonríe cómplice de amor oh oh oh
Días en la carretera yo siento aquí dentro la emoción
de haberte dado lo mejor oh oh oh
Yo no se si es en vano este amor
aquí no hay luces de cera
y algo en mi no se serena no
wo oh oh oh oh
Yo ya no comprendo nada tantas caras dibujadas
como manchas en una pared hum hum hum
Noches de melancolía pateando en una ciudad vacía
en la oscuridad te busco a vos.
Quizás hoy si te pueda encontrar
mas allá de toda pena
siento que la vida es buena hoy.
Yo se que no es en vano este amor
Mas allá de toda pena
Siento que la vida es buena hoy




[Lunes por la Madrugada acordes][Lunes por la Madrugada chords]
© LaCuerda.net · notícia legal · privacidade · es · en · pt · contato
DINAMICO