Cifras para Violão e Guitarra » A »Alejandro del Bosque » Adorar (Tab)

Adorar
Alejandro del Bosque

Letras, cifras e tablaturas para violão, guitarra, piano, ukulele e baixo

  • Cmaj7 G/B, Cmaj7 Em7, Cmaj7 G/B, Am7 Cadd9
    
    
       G                D/F#         Em7                   Dsus2   G/B Cadd9
    Adorar es todo en mi vida, bendecirte es la pasión que arde mi corazón
    
        G/B                Am7               Dsus2  D
    Agradarte es mi gran deseo es mi gran anhelo
    
    
       G                D/F#        Em7              Dsus2     G/B Cadd9
    Adorar es lo que mantiene el aliento en mi ser Poderte satisfacer
    
            G/B                 Am7                  Dsus2  D
    Es el motivo por el cual yo vivo Por el cual yo existo
    
    Coro:
    
                G          D/F# Bm7          Em7          Dsus2
     Yo quiero ser un adorador    que siempre busca lo tuyo
    
  • e------------------------------------------------------------------------|
    B------2/3--3/5---3-------2/3--3/5---------2/3--3/5--3------2/3----------|
    G-3/4----------------3/4-----------4--3/4---------------3/4-------0------|
    D--------------------------------------------------------------------0h2-|
    A------------------------------------------------------------------------|
    E------------------------------------------------------------------------|
    
    Acústica:
    
    Cmaj7 Cadd9 G/B Cmaj7 Cadd9 Em7 Cmaj7 Cadd9 G/B Em7 Dsus2 G/B Cadd9
    
    
       G                D/F#         Em7                   Dsus2   G/B Cadd9
    Adorar es todo en mi vida, bendecirte es la pasión que arde mi corazón
    
        G/B                Am7               Dsus2  D
    Agradarte es mi gran deseo es mi gran anhelo
    
    
       G                D/F#        Em7              Dsus2   G/B Cadd9
    
  • e------------------------------------------------------------------------|
    B------------------------------------------------------------------------|
    G-----7--7/9--7--------7--7/9-----------7--7/9--7--------7---------------|
    D-8/9--------------8/9---------9----8/9--------------8/9---9-------------|
    A------------------------------------------------------------10----------|
    E------------------------------------------------------------------------|
    
    Versos:
    
    e----------------0---2----------------------------------------------|
    B-----8---8--------3---3------3---------8----------8----------8-----|
    G---7---7--7---2------------4---4-----7---7------7---7------7---7---|
    D-5----------0-----------2--------2-5-------9-10-------10-9-------9-|
    A-------------------------------------------------------------------|
    E-------------------------------------------------------------------|
    
    e----------------------|
    B-----8---8------------|
    G---7---7---7----------|
    D-7-----------12--14-12|
    
  • Hola este es el primer tema que envio ojala que les sirva...
    
    Intro:
    (NOTA: Primero comienza la guitarra acustica con la intro con esta secuencia:
    Cmaj7-C9-G/B-Cmaj7-C9-Em7-(Aquí comienza el bajo)
    
    G|----------------|
    D|----------------| COMIENZA
    A|-1h3--2---------| CON
    E|-----------5----| "G"
    B|-------------1--|
    
    VERSO 1:
    
    Adorar...
    
    G|-------------------------------------|
    D|-------------------------------------|
    A|---------------------3----2----------| X2
    E|-3----2------------------------5----2|
    B|-----------5----3--------------------|
    
    CORO:
    
    Yo quiero ser... (Arreglo bajo)
    
    G|-------------------------------------------|
    D|-------------------------------------------|
    A|--5-5-2------------------5-23---2----------| X2
    E|-3-3---1-2h3--2----------------------5----2|
    B|-------------------5-----------------------|
    
    VERSO 1:
    
    Adorar...
    
    G|-------------------------------------|
    D|-------------------------------------|
    A|----------------5--23------2---------| X2
    E|-3----2------------------
  • +
    ¡Colabora con nosotros!
    Envíanos tu versión de esta canción

Letra de Adorar
Adorar es todo en mi vida, bendecirte es la pasión que arde mi corazón
Agradarte es mi gran deseo es mi gran anhelo
Adorar es lo que mantiene el aliento en mi ser Poderte satisfacer
Es el motivo por el cual yo vivo Por el cual yo existo
Yo quiero ser un adorador que siempre busca lo tuyo
Que se deleita en tu presencia y su deseo es amarte
Yo quiero ser un adorador que ante tus pies ha rendido
Que se deleita en tu presencia y su deseo es amarte
Otra vez la estrofa un poquito mas llena:
Adorar es todo en mi vida, bendecirte es la pasión que arde mi corazón
Agradarte es mi gran deseo es mi gran anhelo
Adorar es lo que mantiene el aliento en mi ser Poderte satisfacer
Es el motivo por el cual yo vivo Por el cual yo existo.
El Coro también le mete ese Em7
yo quiero seeerrrr…. Un adoradooorr…….




[Adorar acordes][Adorar chords]
© LaCuerda.net · notícia legal · privacidade · es · en · pt · contato
DINAMICO