Cifras para Violão e Guitarra » A »Alejandro Filio » Aunque no estás (Tab)

Aunque no estás
Alejandro Filio

Letras, cifras e tablaturas para violão, guitarra, piano, ukulele e baixo

  • C               Fmaj7   G6    C  Fmaj7 G
    Desperté y el silencio supo a ti, 
    C               Fmaj7  G6   C  Fmaj7 G
    y al abrir la ventana supe más. 
    Fmaj7         G6        Cmaj7     Am
    Supe que la mañana se podía recortar 
    Fmaj7                G6           Cmaj7        Am
    para enviarla en un sobre a donde sueles despertar. 
    Fmaj7             Cmaj7      Fmaj7     G6
    ¡Qué maneras extrañas tengo para recordar!
    
    
    C           Fmaj7   G6    C  Fmaj7 G
    Desperté y mirando comprendí, 
    C                  Fmaj7   G6    C  Fmaj7 G
    que detrás de un milagro vienes tú. 
    Fmaj7           G6            Cmaj7     Am
    Hace tantos inviernos que no puedo rescatar 
    Fmaj7              G6          Cmaj7         Am
    el adiós que en el tiempo nos partió por la mitad; 
    
  • Intro  Em F  (3) Em Dm G6   C F C F
    
    C                  F    G     Em  F G
    Desperté y el silencio supo a ti,
    Em                F    G     Em  C7
    y al abrir la ventana supe más:
    F             G          Em       Am
    Supe que la mañana se podía recortar
    F                      G            Em        Am
    para enviarla en un sobre a donde sueles despertar.
    F             Em              Dm   Dm/C     G
    ¡Qué maneras extrañas tengo para recordar!
    
    Em F  (2)
    
    Em             F        G     Em  F G
    Desperté y respirando comprendí,
    que detrás de un milagro vienes tú.
    Hace tantos inviernos que no puedo rescatar
    al adiós que en el tiempo nos partió por la mitad;
    
  •   D/F#        G
    1-----------------------0----        X2
    2------2--3---0--2--3--------
    3---2-----------0--0--0---0--
    4--0--0--0--0----------------
    5----------------------------
    6-2-----------3--------------
    
       D/F#        G              D/F#          NN       A
    1-------------------------------------------0---2----------
    2------2--3---0--3--2---3--------3--2--3------------3-2----
    3---2-----------0--0--0---0--2----0---0--0----0---0-----0--
    4--0--0--0--0------------------0------------2---2----------
    5----------------------------------------------------0-----
    6-2-----------3--------------2-----------------------------
    
       D          G
    1------2p0-----------------         X2
    2---3------3--3----3-------
    3--2-2----2-2---0----0-----
    
  •   C                F               C                F
    
    6-0----------------1-------------/-0----------------1------------------
    5--------------------------------/-------------------------------------
    4---2---2---2--------3---3---3---/---2---2---2--------3---3---3--------
    3-----0---------0--2-------------/-----0---------0--2------------------
    2---------0---1--------0---1---3-/---------0---1--------0---1---3------
    1--------------------------------/-------------------------------------
    
      C                F                 C
    
    6-0----------------1---------------------------------------------------
    5------------------------------------3---------------------------------
    4---2---2---2---0----3---3---3---------2---2---2-----------------------
    3-----0------------2-------------0---0-------------0-------------------
    2---------0---1--------1---0---1---------1---0---1---------------------
    1----------------------------------------------------------------------
    
      D7       G7       C              F                C
    
    
  • +
    ¡Colabora con nosotros!
    Envíanos tu versión de esta canción

Letra de Aunque no estás
Desperté y el silencio supo a ti,
y al abrir la ventana supe más.
Supe que la mañana se podía recortar
para enviarla en un sobre a donde sueles despertar.
¡Qué maneras extrañas tengo para recordar!
Desperté y mirando comprendí,
que detrás de un milagro vienes tú.
Hace tantos inviernos que no puedo rescatar
el adiós que en el tiempo nos partió por la mitad;
tú del brazo del viento y yo mirándote volar.
// ¡Que maravilla es poder sentirte aunque no estás!
Siempre supe que en el viento te podías quedar //
Las historias hermosas son así;
nos prometen de lejos ser verdad.
Le pedimos al tiempo que les traiga por acá,
y al final, en un sueño, suelen ser casualidad.
A la vuelta del corazón volvemos a empezar.
Como nube la dicha nos llovió;
sin saber hasta donde caminar.
Y a tu mundo pequeño le inventaba una canción,
delicada y perfecta como alma de caracol.
Tu dormiste y la luz después del día nos cegó.
// ¡Que maravilla es (etc.) //




[Aunque no estás acordes][Aunque no estás chords]
© LaCuerda.net · notícia legal · privacidade · es · en · pt · contato
DINAMICO