Cifras para Violão e Guitarra » A »Alejandro Filio » Mujer que camina (Tab)

Mujer que camina
Alejandro Filio

Letras, cifras e tablaturas para violão, guitarra, piano, ukulele e baixo

  • G-G/G-G-G/C-Am-D-G
    
    
          G 
    No conforme con tus ojos
          G/C                      G 
    te propongo menos cielo, más abrazo
           Bm
    Hace tiempo que te sueño
            G/C                           G
    y ya no se como explicárselo a estas manos. 
            Am
    Que se rompe en el espacio
                                 Bm
    cuando pasas simplemente caminando
               F
    cuanta estrella llevas puesta en la silueta
           D
    que me sigue deslumbrando.
    
    
  • G      320003  
    G4,6   3x2010
    G5     320000
    Cmaj7  x32000
    c9     x32030
    C/B    x20010
    Am/G   302210
    Am/F#  202210
    D5     xx0235
    F5dim  13320x
    D9/F#  2x0230
    D7/F#  2x0210
    c*     x32033
    
    G-Cmaj7 Am-Am/G-Am/F# D9-D-D4 D5 G* D*
    
     G
    No conforme con tus ojos
            Cmaj7                     G5
    te propongo menos cielo, más abrazo
    
  •     F#
    No conforme con tus ojos
          Bmaj7                      F#
    te propongo menos cielo, más abrazo
           A#m
    Hace tiempo que te sueño
            Bmaj7                         F#
    y ya no se como explicárselo a estas manos.
            G#m
    Que se rompe en el espacio
                                 A#m7
    cuando pasas simplemente caminando
               E
    cuanta estrella llevas puesta en la silueta
           C#7/F
    que me sigue deslumbrando.
    
    
    No es la noche ni el café
    lo que me obliga a caminar por esta casa.
    
  •    G          Cmaj7     G          Cmaj7       Am   Am/G Am/F#
    1-------------------------------------------------------------0-------
    2--0---0------0---0-----0---0------0---0-------1--0-1--1-1---1--3-----
    3----0-----0---0-0---0---0-0---0----0-0---0------2----2-----2--2-2----
    4---0-0---0-----2---2-----0---0------2---2------2----2-----2----------
    5-------------3----3---------------3----3------0----------------------
    6--3-----3--------------3----3----------------------3----2------------
    
       G*  D/F# Em        Am*       D5        G             G*
    1-------------0-2-3---3---3-----5---0-2h3-3-2-----3--2----------------
    2--3--3---3--0-0-0-0----1---1-----3-----------0--------0----3----3----
    3----0---2-------------2---2-2---2-2-2-----0-0-0-0----0--2p0--2p0-----
    4---0---0---2------------2------0---------------0---------------------
    5---------------------0-----------------------------------------------
    6--3---0----------------------------------3---------3---3----3--------
    
    
    
    INTERMEDIO
       C         Bm        C         Bm7        Am  Am/G  Am/F# D7/F#
    
  • e----------------------------------------------------
    B-O-----O-----0-----0-----0-----0-----0-----0--------
    G-----O---O-------0---0-------0---0-------0---0------
    D---O-------O---2-------2---0-------0---2-------2----
    A-2-----------3-----------2-----------3--------------
    E-3-----------------------3--------------------------
    
    e---------------------------0-------0--2---3-------3-
    B-1-----1-1-----1-1-----1-------3--------------3-----
    G-----2-------2-------2---2---2---0---0--0---0---0---
    D---2-------2-------0--------------------------------
    A-0--------------------------------------------------
    E---------3-------2----------------------------------
       
    e-------5-------3-------3-2h3-------3-2-3------------
    B---3-------5-----3---3-------3---3-------3-----3----
    G-0---0---0---0-----0-----------0-----------2-0------
    D----------------------------------------------------
    A----------------------------------------------------
    E----------------------------------------------------
    
  • +
    ¡Colabora con nosotros!
    Envíanos tu versión de esta canción

Letra de Mujer que camina
No conforme con tus ojos
te propongo menos cielo, más abrazo
Hace tiempo que te sueño
y ya no se como explicárselo a estas manos.
Que se rompe en el espacio
cuando pasas simplemente caminando
cuanta estrella llevas puesta en la silueta
que me sigue deslumbrando.
No es la noche ni el café
lo que me obliga a caminar por esta casa.
Esta maldita incomprensión
que no despega de tu cuerpo la mirada.
Sigues siendo irremediable
imprescindible para todo lo que estalla
como luna irrepetible
como viento entre las ramas.
Mujer para el sol de mañana
Mujer hasta el borde del alba
Mujer que te pierdo y encuentro
Mujer para afuera, mujer para adentro.
Mujer desafiando a los astros
Mujer que caminas sin rastro
Mujer que me abrazas el alma
Mujer que me robas, Mujer que me robas la calma.
De tu boca tengo el sueño
cada noche, cada luna solitaria,
de tu pecho el medio sol al horizonte
que se pierde, que se escapa.
Sigo siendo para el fuego y el dolor,
para el miedo y el olvido,
no me pidas que defina un corazón
desatándote el vestido.
Mujer para el sol de mañana.....
3 - 2 -
2 3 - 2
- 2 2 2
- - - -
3 3 3 3
3 3 3 3




[Mujer que camina acordes][Mujer que camina chords]
© LaCuerda.net · notícia legal · privacidade · es · en · pt · contato
DINAMICO