Cifras para Violão e Guitarra » A »Almafuerte » Por ser yo (Tab)

Por ser yo
Almafuerte

Letras, cifras e tablaturas para violão, guitarra, piano, ukulele e baixo

  • MIm               DO
    De tanto esquivar soledad
    SOL                     RE
    ya no hay nada que me espante.
    MIm           DO       
    Todo lo que tuve una vez,
    SOL          RE    
    hoy es ayer. Hoy es distante.
    
    SIm                SOL  
    De nada vale recordar 
                        LA    LA4  LA   LA4
    lo que fuera algún día. 
    SIm             SOL               LA     LA4  LA   LA4         
    De nada vale llorar las horas perdidas.
    (SOL - DO - RE)     
    Pues allí está la muerte.
    (SOL - DO - RE)
    Esperando.
    
    
  • E*--------------------------0-------------------------2--*
    B*----------0-3(2)---------0-----------0-3(2-5-2-2p0)-0--*
    G*-------0-2------(2-2p0)-0---------0-2------------------*
    D*------0----------------2---------0---------------------*
    A*--------------0--------------------------0-------------*
    E*-0-2-3-------------0--------0-2-3--------------0-------*
    
                                         A  F  G  D
    E*--------------------------0------I----1--3-------------*
    B*----------0-3(2)-------1-3-(3-0)-I-2--1--3--3----------*
    G*-------0-2-----(2)----0----------I-2--2--4--2--------0-*
    D*------0--------------2-----------I-2--3--5--0------0---*
    A*--------------0---2-3------------I-0--3--5-----0h2-----*
    E*-0-2-3----------------------3----I----1--3-------------*
    
    
    Comienza la cancion, pongo los acordes y arreglos
    los rasguos saquenlos ustedes!!
    
    'De tanto esquivar....'         I 'De nada vale recordar....'
    
  • +
    ¡Colabora con nosotros!
    Envíanos tu versión de esta canción

Letra de Por ser yo
De tanto esquivar soledad
ya no hay nada que me espante.
Todo lo que tuve una vez,
hoy es ayer. Hoy es distante.
De nada vale recordar
lo que fuera algún día.
De nada vale llorar las horas perdidas.
Pues allí está la muerte.
Esperando.
Soy quien ayer cantó sé vos
Hoy por ser yo transito errante.
El camino del corazón,
que aún dentro de mi pecho late.
Sueño comprenderán, cuál fue mi movida.
Cuando la carga del tiempo se sume a sus vidas.
Si lo quiere mi suerte. Será cierto.
Es por tanto extrañar que no cierra mi herida.
No sé por que razón el amor me lastima.
De nada vale llorar lo que fuera entonces.
Mi verdad, mi razón, junto al cedro y al bronce.
Los guardará la tierra. Nuevamente.
Mi nombre es Javier Ibaldo, cualquier duda escriban a Jibaldo@uol.com.ar .
“aguante Almafuerte”




[Por ser yo acordes][Por ser yo chords]
© LaCuerda.net · notícia legal · privacidade · es · en · pt · contato
DINAMICO