Cifras para Violão e Guitarra » A »Alvaro Torres » Nada se compara contigo (Tab)

Nada se compara contigo
Alvaro Torres

Letras, cifras e tablaturas para violão, guitarra, piano, ukulele e baixo

  • LA7   DO#m7  SIm7  FA#m/5 
    MI7sus4  MI7  MI
    
    LA7                   REm7
    Que buena suerte he tenido al conocerte
    
    FA          Fa6/Sol              LA7 
    Y mas aún que te hayas fijado en mi
    
         REm7        SOL9        LA7   
    Te jugaste todo a nada al quererme
    
             FA#m          SI7       MI7sus4 MI7 MI
    Pero te juro que no te vas a arrepentir
    
    LA7                     REm7
    Y no te miento cuando digo que te amo
    
    FA          Fa6/Sol          LA7 
    Que yo sin ti ya no podría vivir
    
  • A                    D7    
    Que buena suerte he tenido al conocerte
    F7                                A
    y mas aún que te hayas fijado en mi
    F                            A  
    te jugaste todo a nada al quererme
    D                                  E
    pero te juro que no te vas a arrepentir
    
    
    
    A                     D7 
    Y no te miento cuando digo que te amo
    F7                             A
    que yo sin ti ya no podria vivir
    F                               A
    pongo el alma y la vida en tus manos
    D                                  E
    para que sepas que tu eres todo para mi
    
    
  •    DO#m  RE  REm7  MI   FA  FA#m  LA   SIm    |
    E----4----2----1----0----1----2----0----2---  |
    B----5----3----1----0----1----2----2----3---  |
    G----6----2----2----1----2----2----2----4---  |
    D----6----0----0----2----3----4----2----4---  |
    A----4--------------2----3----4----0----2---  |
    E-------------------0----1----2-------------  |
    ______________________________________________|
    
    
    =INTRO=
       LA              DO#m          RE                  SIm     MI     LA
    E---------------------4--- -----4-5----------- -------4----------2-0-0--
    B---7-5-5-----------7---5- -5-7--------------- ---5-7---3-3-2-0---------
    G---------7-7-6-4--------- ---------7-7-6-7-7- -7-----------------------
    D-----------------7------- ------------------- -------------------------
    A------------------------- ------------------- -------------------------
    E------------------------- ------------------- -------------------------
    
    =1ªParte=
    
  • +
    ¡Colabora con nosotros!
    Envíanos tu versión de esta canción

Letra de Nada se compara contigo
Que buena suerte he tenido al conocerte
y mas aún que te hayas fijado en mi
te jugaste todo a nada al quererme
pero te juro que no te vas a arrepentir
Y no te miento cuando digo que te amo
que yo sin ti ya no podria vivir
pongo el alma y la vida en tus manos
para que sepas que tu eres todo para mi
Nada se compara contigo
las emociones más profundas y tantas ilusiones juntas
tu me fascinas y eres la tentacion mas exquisita
Nada se compara contigo
no tuve amor mas impetuoso y la pasión que en ti derrocho
Y aunque parezca fantasioso es así
de lo vivido nada se compara contigo.




[Nada se compara contigo acordes][Nada se compara contigo chords]
© LaCuerda.net · notícia legal · privacidade · es · en · pt · contato
DINAMICO