Cifras para Violão e Guitarra » A »Angeles Azules » Como te voy a olvidar (Tab)

Como te voy a olvidar
Angeles Azules

Letras, cifras e tablaturas para violão, guitarra, piano, ukulele e baixo

  • Bm  D  F#m  G A G A   D  F#m  G A G A
    
    D                 Bm
    Amor amor amor   amor amor amor
    G                                  A
    Quiero que me vuelvan a mirar tus ojos
    D                Bm
    Amor amor amor   amor amor amor
     G                                A
    Quiero volver a besar tus labios Rojos
    
    
     D                          Bm
    Como no acordarme de ti de que manera olvidarte
    G                     A      G                 A
    si todo me recuerda a ti en todas partes estas tu
    
    D                       F#m
    Si en una rosa estas tu si en cada respirar estas tu
    G               A      G              A
    
  • Bm
    e---------7-5-4--------------7-5-4-------
    B-------7------7-----------7-------7-----
    G---4-7---------7-4----4-7-----------7-4-
    D----------------------------------------
    A----------------------------------------
    E----------------------------------------
    
    D                      Bm                   G           A  G           A
    e--------------------------------------------------------------------------
    B----------------------777-5-7---77-5-7-----8-8-8-8-5-3-2--8-8-8-8-5-3-2--
    G-777-6-7---77-6-7-------------6--------6----------------------------------
    D---------7--------7-------------------------------------------------------
    A--------------------------------------------------------------------------
    E--------------------------------------------------------------------------
    
    
    
    D                 Bm
    Amor, amor, amor, Amor, amor, amor,
    
  •      Bm                     Play 2x's
    e---------7-------------------------------
    B-------7---10-7-10-----------------------
    G-----7-------------7---------------------
    D---9-----------------9-9-----------------
    A-----------------------------------------
    E-----------------------------------------   Play 2x's
         D                 F#m                 G         A7    G       A7
    e--------------------------------------------------------------------------
    B----------------------77777---77777------8-8-8-8-7-8-----8-8-8-8-7-8------
    G-77777----7777-------------6--------6----------------9-9-------------9-9--
    D-------7-------7----------------------------------------------------------
    A--------------------------------------------------------------------------
    E--------------------------------------------------------------------------
    
    
    
    D                 F#m
    Amor, amor, amor, Amor, amor, amor,
       G                               A7
    
  • bU3nO 3sta rOLa 3sta bi3n, sOLo s3 3qUivOcO 3n Un baj30, 3s mUy NotOriO
    ch3qu3nLo y uSt3d3s jUzGan.
    
    
    Ritmo: Cumbia
    
    Primero que nada la canción es extremandamente repetitiva,
    entonces no vale la pena repetir la tablatura 20 veces,
    voy a poner de referencia lo que toca el bajo en cada acorde.
    
    (tOdO bi3n, haSta aqUi)
    
    L3 faLtO 4gr3gaR 3ste baj3O
    
                  F#m
    
             G|--2--6---2-6
             D|4------4----
             A|------------
             E|------------
    
    
    
    
      D
    G|------------
    D|--4-7----4-7
    A|5------5----
    E|------------
    
      Bm
    G|------------
    D|--0-4----0-4
    A|2------2----
    E|------------
    
      G
    G|--4-7----4-7
    D|5------5----
    A|------------
    E|------------
    
      A7
    G|------------
    D|------------
    A|--4-7----4-7
    E|5------5----
    
    bU3no cOntinU3mos:
    
    En cada acorde se toca ese bajéo tan repetitivo y otra cosa,
    la canción no está en C, está en D.
    
    
    H4 t4Mbi3n L3 f4Lto 3l iNtRo, 4hY l3s vh4:
    
    iNtRO: Bm-  Y DESPU3S:
    D-F#m-G-A7-G-A7.
    
    
      D
    Amor, amor, amor,
      Bm
    Amor, amor, amor,
       G           
  • Ritmo: Cumbia
    
    Primero que nada la canción es extremandamente repetitiva,
    entonces no vale la pena repetir la tablatura 20 veces,
    voy a poner de referencia lo que toca el bajo en cada acorde.
    
    
      D
    G|------------
    D|--4-7----4-7
    A|5------5----
    E|------------
    
      Bm
    G|------------
    D|--0-4----0-4
    A|2------2----
    E|------------
    
      G
    G|--4-7----4-7
    D|5------5----
    A|------------
    E|------------
    
      A7
    G|------------
    D|------------
    A|--4-7----4-7
    E|5------5----
    
    
    En cada acorde se toca ese bajéo tan repetitivo y otra cosa,
    la canción no está en C, está en D.
    
    
      D
    Amor, amor, amor,
      Bm
    Amor, amor, amor,
       G                              A7
    quiero que me vuelvan a mirar tus ojos.
    
      D
    Amor, amor, amor,
      Bm
    Amor, amor, amor,
       G                                      A7
    quiero que me vuelvan a besar tus labios rojos.
    
       D
    Como acordarme de ti,
         Bm
    ¿de qué manera olvidarte?,
        G                  A7
    si todo me recuerda a ti, 
        
  • VaMo$ Lo$ PiBe$ De BaLlE$TeR...
    
    
    (MI-SOL)= Se tocan juntas.
    
    
    
    SI RE FA# SI LA SOL# FA# RE SI
    
    SI RE FA# SI LA SOL# FA# RE SI
    
    SI RE FA# SI LA SOL# FA# RE SI
    
    SI RE FA# SI LA SOL# FA# RE SI
    
    
    RE RE RE DO# RE LA
    
    RE RE DO# RE LA
    
    FA# FA# FA# MI FA# DO#
    
    FA# FA# MI FA# DO#
    
    
    (MI-SOL) (MI-SOL) (MI-SOL) (MI-SOL)
    
    (DO#-MI) (SI-RE) (LA-DO#)
    
    (MI-SOL) (MI-SOL) (MI-SOL) (MI-SOL)
    
    (DO#-MI) (SI-RE) (LA-DO#)
    
    
    RE RE RE DO# RE LA
    
    RE RE DO# RE LA
    
    FA# FA# FA# MI FA# DO#
    
    FA# FA# MI FA# DO#
    
    
    (MI-SOL) (MI-SOL) (MI-SOL) (MI-SOL)
    
    (DO#-MI) (SI-RE) (LA-DO#)
    
    (MI-SOL) (MI-SOL) (MI-SOL) (MI-SOL)
    
    (DO#-MI) (SI-RE) (LA-DO#)
  • +
    ¡Colabora con nosotros!
    Envíanos tu versión de esta canción
  • Tutorial
    Cómo te Voy a Olvidar (Tutorial Para Bajo)
    15:33

Letra de Como te voy a olvidar
Amor amor amor amor amor amor
Quiero que me vuelvan a mirar tus ojos
Amor amor amor amor amor amor
Quiero volver a besar tus labios Rojos
Como no acordarme de ti de que manera olvidarte
si todo me recuerda a ti en todas partes estas tu
Si en una rosa estas tu si en cada respirar estas tu
como te voy a olvidar como te voy a olvidar
si besando la cruz estas tu rezando una oracion estas tu
como te voy a olvidar como te voy a olvidar
Si te clavaste aqui en mi Corazon y de amor has llenado mi alma
y tu sangre corre por mis venas y mi sangre me hace estremecer yo contigo
Amor amor amor amor amor amor
Quiero que me vuelvan a mirar tus ojos
Amor amor amor amor amor amor
Quiero volver a besar tus labios Rojos
Como no acordarme de ti de que manera olvidarte
si todo me recuerda a ti en todas partes estas tu
si en una rosa estas tu si en cada respirar estas tu
como te voy a olvidar como te voy a olvidar
si besando la cruz estas tu rezando una oracion estas tu
como te voy a olvidar como te voy a olvidar
si en una rosa estas tu si en cada respirar estas tu
como te voy a olvidar como te voy a olvidar
Si besando la cruz estas tu rezando una oracion estas tu
como te voy a olvidar como te voy a olvidaaaar




[Como te voy a olvidar acordes][Como te voy a olvidar chords]
© LaCuerda.net · notícia legal · privacidade · es · en · pt · contato
DINAMICO