Cifras para Violão e Guitarra » A »Antologia » Nostalgia (Tab)

Nostalgia
Antologia

Letras, cifras e tablaturas para violão, guitarra, piano, ukulele e baixo

  • FA#m
    Como si el viento adivinara
    e|--4--5--4--2--1-2---
    b|--------------------------
    g|--4--6--4--2--1-2---
    De la nostalgia que me embarga
    
    SIm FA#m SIm FA#m RE
    
    SIm                  FA#m
    Son tus recuerdos y están...
    SIm                FA#m
    Matándole a mi corazón
    RE
    Lo peor es que no puedo olvidar
    En la distancia te sé esperar
    SIm                  FA#m
    Y vuelve mi llanto a caer
    SIm                  FA#m
    Abrazando esta mi soledad
    
  •         B---------------------------------
            G----4--6--7--4--2--1--2----------
            de la nostalgia que me embarga,
    
            Bm                F#
            son tus recuerdos y estan
            Bm             F#
            matandole a mi corazón,
            D                        F#
            lo peor es que no puedo olvidar
            D                        F#
            en la distancia te se esperar
              Bm              F#
            y vuelve mi llanto a caer
            Bm                 F#
            abrazando esta mi, soledad
            D                  F#
            mi vida no tiene razón,
            D                  F#
            sin ti yo no se adonde voy.
    
  • intermedio:  SIm, FA#m, RE 
    
    Como si el viento adivinara
    de la nostalgia que me embarga,
    solo y frente a este mundo
    solo y con todos tus recuerdos
    no me resigno a perder tu amor
    es mas me niego a olvidarte
    sabes no quiero perderte
    te amo mil veces, te amo.
    
    1)-14-14-12----14-13-14-14-12-11-12-10-| 1)-----10-14-15-14-15-12-|
    2)---------14--------------------------| 2)---12------------------|
    3)-----------11------------------------| 3)-11--------------------|
                     Bis
    1)--- -9-12-15-14-15-14|------10-14-15-14-15-12-|
    2)---11----------------|---12-------------------|
    3)-11------------------|-11---------------------|
    
    1)-14h15-14-12-10-12-10-9------|
    
  • HOLA,MEDIANTE ESTE TABS QUIERO MANDAR SALUDOS A MI PROMO 2005
    (PAJIÑO,RICARDO,POCH,LACUCA,KATY,CHANA,HARY,DIEGO,PECHIS,CROWEL,
    MAYLER),TAMBIEN PA MIS AMIGOS: YEREMI, BLADIMIR, NEYDA,
    KATTY, LA PULGA, LLESICA, MELODI, ROBERT..ESTA ES LA PRIMERA
    Y ULTIMA PARTITURA QUE PUBLICARE VOY A DESAPARECER POR UN BUEN
    TIEMPO DE TODOS USTEDES PROMO)
    PS VOY A DEJAR TODO…ME HE PLANTEADO UNA VISION Y SI ME ESFUERZO
    ESTOY SEGURO Q LO LOGRARE, YA ME ENTENDERAN. Y SI LO LOGRO YA LE
    CAERE EL 2007CON LA SORPRESA.BUENO ME DESPIDO Y HASTA ENTONCES…
    CHAU JENTITA.
    
    
    
    
    
    
    
      INTRO
    
    e|--12v-------------13------|
    B|-----10--12--13-----------|
    G|--------------------------|
    D|--------------------------|
    A|--------------------------|
    E|--------------------------|
    
    E|--10v---------15--------13-.12-------12-----|
    B|-----------------------------15-.-15--------|
    G|--------12---------12-----------------------|
    D|--------------------------------------------|
    A|--------------------------------------------|
    E|-------------
  •    FA#m  como SI el viento...           de la nostalgia que...
    6|--2*---------------------------------------------------------
    5|--4*---------------------------------------------------------
    4|--4*---------------------------------------------------------
    3|--2*-----------------------4-6-4-2-1-2-----------------------
    2|--2*---------------------------------------------------------
    1|--2*-----------------------4/5-4-2-1-2-----------------------
    
    punteo (A)
    
       SIm       FA#m  SIm        FA#m RE...
    6|--------------------------------------------------------------------
    5|--------------------------------------------------------------------
    4|---------424--------------424--------(44)44h2-024------(44)44h2-024-
    3|----444h2------------444h2-------22h4--------------22h4-------------
    2|-2h3-------------22h3-----------------------------------------------
    1|--------------------------------------------------------------------
    
             SIm
    6|--------
    
  • +
    ¡Colabora con nosotros!
    Envíanos tu versión de esta canción

Letra de Nostalgia
de la nostalgia que me embarga,
son tus recuerdos y estan
matandole a mi corazón,
lo peor es que no puedo olvidar
en la distancia te se esperar
y vuelve mi llanto a caer
abrazando esta mi, soledad
mi vida no tiene razón,
sin ti yo no se adonde voy.
Como si el viento adivinara
de la nostalgia que me embarga,
no me resigno a perder tu amor
es mas me niego a olvidarte
sabes no quiero perderte
te amo mil veces, te amo.




[Nostalgia acordes][Nostalgia chords]
© LaCuerda.net · notícia legal · privacidade · es · en · pt · contato
DINAMICO