Cifras para Violão e Guitarra » A »Ariel Camacho » El Karma (Tab)

El Karma
Ariel Camacho

Letras, cifras e tablaturas para violão, guitarra, piano, ukulele e baixo

  • D
    Nací en el agua caliente,
                       A
    después vine a Culiacán,
    G                   D
    ahí me metí en el ambiente
                 A               D
    buscando billete para progresar.
    
    
    Se me empezó a ver dinero,
                       A
    Los Ángeles trafique,
    G        A              D
    pero nunca falta un perro
                     A                   D
    que mirando el hueso no quiera morder.
    
    Bm
    Querían un secuestro exprés
    
  •     SIm
    E|--0--0-----0--0-----0--0--------------
    B|--0--0-----0--0-----0--0--------------
    G|-------2--------2--------2--2--2--2--
    D|-------------------------------------
    A|-------------------------------------
    E|-------------------------------------
    
          D                     D7
    E|--0p2--2--0--0------------------
    B|--0p3--3--2--2--0---------------
    G|--------------------2--2--2-----
    D|--------------------------------
    A|--------------------------------
    E|--------------------------------
    
     G                    D                       A                         D
    --7--7--7--10--10--12--14--9---9---14--14--14--12--10--9---10--9---7--5--2--2-
    --8--8--8--12--12--14--15--10--10--15--15--15--14--12--10--12--10--8--7--3--3-
    ------------------------------------------------------------------------------
    
  • +
    ¡Colabora con nosotros!
    Envíanos tu versión de esta canción
  • Tutorial
    HD
    Como tocar - El Karma de Ariel Camacho - Tutorial Guitarra (HD)
    4:06

Letra de El Karma
Nací en el agua caliente,
después vine a Culiacán,
ahí me metí en el ambiente
buscando billete para progresar.
Se me empezó a ver dinero,
Los Ángeles trafique,
pero nunca falta un perro
que mirando el hueso no quiera morder.
Querían un secuestro exprés
con mis hijas de rehén,
a mi familia el precio
no vendrá un pendejo a quererlo poner.
Deseaba estar yo también
pa’ podérmelos comer,
veo que me tenían respeto,
sabían que con pleitos no iban a poder.
(Requinto) 
No tarde pa’ dar con ellos,
                      A
y esa deuda fui a cobrar,
dije de una vez al cuello
              A                D
por bravo ese perro lo voy amarrar.
Llegue tumbando la puerta,
                    A
el agua clara no está,
ya me tenían la respuesta
             A                D
el 4 en la mesa me vine a topar.
Mi browning hice accionar
pero no me dio pa’ mas,
me contesto un R-15,
             A                 D
esos proyectiles fueron mi final.
El karma viene y se va,
también se escucha por ahí
que ese R-15 descansa,
               A                D
nadie de la parca se puede escapar.




[El Karma acordes][El Karma chords]
© LaCuerda.net · notícia legal · privacidade · es · en · pt · contato
DINAMICO