Cifras para Violão e Guitarra » A »Ariel Camacho » Puño de tierra (Tab)

Puño de tierra
Ariel Camacho

Letras, cifras e tablaturas para violão, guitarra, piano, ukulele e baixo

  • A
    Vagando, paso la vida
                         E7
    Nomás recorriendo el mundo
    
    Si quieren, que se los diga
                        A
    Yo soy un alma sin rumbo
                       E7
    Ya muerto, no vale nada
        D     E7         A
    Pa' mí la vida es un susto
    
    A
    Yo tomo, cuando yo quiero
                          E7
    No miento, soy muy sincero
    
    Y soy como las gaviotas
                             A
    
  • E|--0-0h2--2-2--0--2-2-2--0-0h2--2--2--2--
    B|--2-2h3--3-3--2--3-3-3--2-2h3--3--3--3--
    G|----------------------------------------
    D|----------------------------------------
    A|----------------------------------------
    E|----------------------------------------
    
    E|--0-0h2--2-2--0--2-2-2--0-0h2--0--0--0--
    B|--2-2h3--3-3--2--3-3-3--2-2h3--2--2--2--
    G|----------------------------------------
    D|----------------------------------------
    A|----------------------------------------
    E|----------------------------------------
    
    E|--2/4--2-2/4--4-4--2--2/4--4-4--
    B|--3/5--3-3/5--5-5--3--3/5--5-5--
    G|--------------------------------
    D|--------------------------------
    A|--------------------------------
    E|--------------------------------
    
  • +
    ¡Colabora con nosotros!
    Envíanos tu versión de esta canción

Letra de Puño de tierra
Vagando, paso la vida
Nomás recorriendo el mundo
Si quieren, que se los diga
Yo soy un alma sin rumbo
Ya muerto, no vale nada
Pa' mí la vida es un susto
Yo tomo, cuando yo quiero
No miento, soy muy sincero
Y soy como las gaviotas
Que vuelan, de puerto en puerto
Pa' mí la vida no es nada
Al fin que también la debo
El día, que yo me muera
No voy a llevarme nada
Hay que darle, gusto al gusto
La vida, pronto se acaba
Lo que pasó en este mundo
Nomás el recuerdo queda
Ya muerto voy a llevarme
Nomás un puño de tierra
Yo tomo, cuando yo quiero
No miento, soy muy sincero
Y soy como las gaviotas
Que vuelan, de puerto en puerto
Pa' mí la vida no es nada
Al fin que también la debo
El día, que yo me muera
No voy a llevarme nada
Hay que darle, gusto al gusto
La vida, pronto se acaba
Lo que pasó en este mundo
Nomás el recuerdo queda
Ya muerto voy a llevarme
Nomás un puño de tierra




[Puño de tierra acordes][Puño de tierra chords]
© LaCuerda.net · notícia legal · privacidade · es · en · pt · contato
DINAMICO