Cifras para Violão e Guitarra » A »Ariel Camacho y los Plebes del Rancho » Que se canse de llamar (Tab)

Que se canse de llamar
Ariel Camacho y los Plebes del Rancho

Letras, cifras e tablaturas para violão, guitarra, piano, ukulele e baixo

  •          MI
    Quiero besarte,
            SOL#m
    Y no soltarte,
           DO#m
    Que lo asimiles,
             LA
    Que soy tu dueño,
               SI
    Que no lo quieres…
    
            MI
    Déjale claro,
            SOL#m
    Que yo te amo,
          DO#m
    Y necesito,
           LA
    Verte Conmigo,
                   SI
    
  • E B A F#m B Bb A B E
    
              E
    Quiero besarte,
            G#7
    Y no soltarte,
               C#7
    Que lo asimiles,
              A
    Que soy tu dueño,
              B
    Que no lo quieres...
    
    
           E
    Déjale claro,
              G#7
    Que yo te amo,
             C#7
    Y te necesito,
    
  • A=LA
    B=SI
    C=DO
    D=RE
    E=MI
    F=FA
    G=SOL
    "#"=sostenido
    "b"=bemol
    
    Intro Acordes:
    E B A F#m B Bb A B E
    
              E
    Quiero besarte,
            G#7
    Y no soltarte,
               C#m
    Que lo asimiles,
               A
    
  • E|--2--2--2--2--0--0--------
    B|--3--3--3--3--2--0--------
    G|--------------------2--2--
    D|--------------------------
    A|--------------------------
    E|--------------------------
    
    E|--2--3--0-----
    B|--3--5--2-----
    G|-----------2--
    D|--------------
    A|--------------
    E|--------------
    
    E|-------------------------------------------------
    B|-------------------------------------------------
    G|--2--2--2-2h4-----2--4--2--2h4--2--2h4--2--2--2--
    D|-------------------------------------------------
    A|-------------------------------------------------
    E|-------------------------------------------------
    
  • +
    ¡Colabora con nosotros!
    Envíanos tu versión de esta canción

Letra de Que se canse de llamar
Quiero besarte,
Y no soltarte,
Que lo asimiles,
Que soy tu dueño,
Que no lo quieres…
Déjale claro,
Que yo te amo,
Y necesito,
Verte Conmigo,
Caminando de la mano…
Porque no ejecutamos la acción,
Que su llamada entra al buzón,
Mientras tú y yo nos amamos…
Que se canse de llamar,
Pa’ que entienda,
Que mis besos caminan por tu vereda…
Que se canse de llamar,
Y que acepte,
Que en su mundo no podrá más retenerte…
Que se canse de llamar,
Pa’ que de una vez por todas,
Entienda que hay alguien más.




[Que se canse de llamar acordes][Que se canse de llamar chords]
© LaCuerda.net · notícia legal · privacidade · es · en · pt · contato
DINAMICO