Cifras para Violão e Guitarra » A »Autobus » El Duelo (Tab)

El Duelo
Autobus

Letras, cifras e tablaturas para violão, guitarra, piano, ukulele e baixo

  • E|-2--4--------------------------------2--------2---0-2-----2-
    a|------0-4--4-2-0-2-4---4---4-2-0-2-4---2~02-4-----------0---
    d|----------------------2-------------------------------------
    g|------------------------------------------------------------
    b|------------------------------------------------------------
    e|------------------------------------------------------------
    
    
    F#m
    Mis neuronas se quieren matar
            A
    están atadas a un submundo infernal
            Bm
    hoy el duelo va a empezar
                                  F#m
    saca las balas sólo déjate llevar.
    
    F#m
    Mi amor ya no me quieren dar
             A
    
  • F# A B F#
    |------------------------------|
    |------------------------------|
    |------------------------------|
    |------------------------2-----|
    |---------4--2h4-2---2-4---4---|
    |-2-0h2-5----------5-----------|
    
    |----------------------------------------------|
    |----------------------------------------------|
    |----------------------------------------------|
    |----------------------------------------------|
    |-2h4-2-----2--4-------2---2-4-----------------|
    |-------5--------2---0---0-----2--0--2--0--5-2-|
    
    F#
    Hoy mis neuronas se quieren matar
           A
    Estan atadas al submundo infernal
           B
    
  • +
    ¡Colabora con nosotros!
    Envíanos tu versión de esta canción

Letra de El Duelo
Mis neuronas se quieren matar
están atadas a un submundo infernal
hoy el duelo va a empezar
saca las balas sólo déjate llevar.
Mi amor ya no me quieren dar
Es que acaso me he portado un poco mal?
El tiroteo va a empezar
saca las garras sólo dame un poco más
En el aire, tu te vez mucho mejor
En el aire, todo el mundo está mejor
Ay mi amor, mi cabeza va a explotar.
Mi amor ya no me quieren dar x4
Es que acaso me he portado un poco mal
Ya todo vuelve a empezar
en el infierno nos volvemos a encontrar
Ay mi amor, mi cabeza va a explotar.

Vídeo de El Duelo
[ver mais vídeos]




[El Duelo acordes][El Duelo chords]
© LaCuerda.net · notícia legal · privacidade · es · en · pt · contato
DINAMICO