Cifras para Violão e Guitarra » B »La Beriso » Traicionero (Tab)

Traicionero
La Beriso

Letras, cifras e tablaturas para violão, guitarra, piano, ukulele e baixo

  • G                 D                     Em
    Decirme como le explico a mi corazón lo perdido
                        C                             G
    Se que la culpa fue mía fui yo quien abrió esta herida
                      D                           Em
    No merezco lo que tengo voy perdiendo por ser terco
                    C                           G
    Veo tu angustia llorando partiendose en mil pedazos
           D
    En mil pedazos
    D                 G    C                   G
    Cuantas noches de gira días llenos de melancolía
    C                          G    C                      G
    Mi casa sin vos se ve tan vacía se que tu amor fue tan sincero
    D                             G
    Perdon, el mio fue tan traicionero
    
    Solo: D-C-G-C-Em-D-C-G
    
    G                    D                             Em
    
  • Intro: G#-C#-G#
    
    RIFF:
         C#                    G#
    E|-----------------------------------------|
    B|----999-888-666-444----------------------|
    G|--------------------1-1h3-5--------------|
    D|-----------------------------------------|
    A|-----------------------------------------|
    E|-----------------------------------------|
    
         C#                  Fm          D#           C#              G#
    E|-------------------------------------------------------------------------|
    B|----999-888-666-444------------------------------------------------------|
    G|---------------------1s5------5-6-88-653---3-5-66--5--1------------------|
    D|----------------------------------------------------------1h3--11--------|
    A|---------------------------------------------------------------------3---|
    E|----------------------------------------------------------------------4--|
    
    Verso:
    
  •       F#m                  Dsus2   ↑ ↓    Asus2
    eb|-----5---4----4h5p4---------5---5-5-------0----|
    Bb|-----7---7----------7-5-----5---5-5-------0----|
    Gb|----6--6----6---------------7---7-7-------2----|
    Db|--4------------------------7-------------2-----|
    Ab|-------------------------5-------------0-------|
    Eb|-----------------------------------------------|
    
          D                        A
    eb|---------------------------------------------|
    Bb|---/10-10109-997-775-55----------------------|
    Gb|---------------------------2h4-4/6-4/--------|
    Db|---------------------------------------------|
    Ab|---------------------------------------------|
    Eb|---------------------------------------------|
    
          D                       F#m
    eb|-----------------------------------|
    Bb|---/10-10109-997-775-55------------|
    Gb|---------------------------2/6~----|
    
  • e|--------4-----3-----3h4p3--------|-----------4--4()0---|-----------4--|
    B|---------------------------6--4--|-----------4--4()0---|-----------4--|
    G|-----5-----5-----5---------------|--------6-----6()1---|-----------5--|
    D|--3------------------------------|-----6--------6()1---|--------6-----|
    A|---------------------------------|--4------------------|-----6--------|
    E|---------------------------------|---------------------|--4-----------|
    
    RIFF
    
    e|--------------------------------------------------------
    B|--2/9--9--9()8--8--8()6--6--6()4--4--4-------------
    G|----------------------------------------1h3--3/5------
    D|--------------------------------------------------------
    A|--------------------------------------------------------
    E|--------------------------------------------------------
    
    e|------------------------------------------------------------------|
    B|--2/9--9--9()8--8--8()6--6--6()4--4--4-------------------------|
    G|---------------------------------------------1/5--5--6--8--8--6--5|
    D|------------------------------------------------------------------|
    
  • +
    ¡Colabora con nosotros!
    Envíanos tu versión de esta canción

Letra de Traicionero
Decirme como le explico a mi corazón lo perdido
Se que la culpa fue mía fui yo quien abrió esta herida
No merezco lo que tengo voy perdiendo por ser terco
Veo tu angustia llorando partiendose en mil pedazos
En mil pedazos
Cuantas noches de gira días llenos de melancolía
Mi casa sin vos se ve tan vacía se que tu amor fue tan sincero
Perdon, el mio fue tan traicionero
Cuantas noches de victorias que al otro dia eran derrotas
Me fui cayendo en el barro, no tengo ni pal fracaso
Voy juntando pedazos no me queda ni tu pasado
Se que la culpa fue mía fui yo quien abrió esta herida,
Quien abrió esta herida
Cuantas noches de gira días llenos de melancolía
Mi casa sin vos se ve tan vacía se que tu amor fue tan sincero
Perdon, el mio fue tan traicionero X2
/:Crispi




[Traicionero acordes][Traicionero chords]
© LaCuerda.net · notícia legal · privacidade · es · en · pt · contato
DINAMICO