Cifras para Violão e Guitarra » C »C. Tangana » Ingobernable (Tab)

Ingobernable
C. Tangana

Letras, cifras e tablaturas para violão, guitarra, piano, ukulele e baixo

  • e|--------------------|-------------------|----------------------------|
    B|--------------------|-----------3--3-3--|-3-1--1------1---1--1-1--1-1|
    G|------0-2-3-0-2-----|-2----2--2---------|----------3-----------------|
    D|-3-3----------------|-------------------|----------------------------|
    A|--------------------|-------------------|----------------------------|
    E|--------------------|-------------------|----------------------------|
    
    e|-------------------------0----|--------------------------------------|
    B|-1------------------1-3----3--|-3-2----------------------------------|
    G|---3--3--2--3----3------------|------3-2-----------0-2-3-0-2---------|
    D|------------------------------|---------------3-3--------------------|
    A|------------------------------|--------------------------------------|
    E|------------------------------|--------------------------------------|
    
    e|------------------|-----------------0--1-3-|-3-1--1---0-------1-0-----|-----|
    B|----------3--3-3--|-3-1-1----1--1-3--------|------------3--3------3-2-|-2-2-|
    G|-2---2--2---------|--------3---------------|--------------------------|---0-|
    D|------------------|------------------------|--------------------------|---2-|
    A|------------------|------------------------|--------------------------|---0-|
    E|------------------|------------------------|--------------------------|-----|
    
  • +
    ¡Colabora con nosotros!
    Envíanos tu versión de esta canción

Letra de Ingobernable
[Estrofa 1]
No me vale con mis buenas intencione' (Que no, que no)
No me vale con mis buenas accione' (No me vale)
A ella no le vale con que le escriba canciones (Ah, ah, ah, ah)
Ingobernable, el amor de mis amores (Que no me vale)
[Estribillo]
Ni una escalera para poder alcanzarte (Ole Pucho)
Ni una pistola para poder gobernarte (Vamo')
Ni una escalera para poder alcanzarte (Que no, que no)
Ni una pistola para podеr gobernarte (Esa no)
[Estrofa 2]
No le valе con partirme el pecho y gritar "te quiero"
cada vez que pasa" (Pucho; eso e')
Que sé que tú no tienes precio (Vamo')
Reina dentro y fuera 'e casa (Ey)
Y en mi corazón que está muerto 'e miedo por tus amenazas
¿Qué te vas a ir? (Vamo')
[Estribillo 2]
No me vale con mis buenas intencione' (Que no, que no)
No me vale con mis buenas accione' (No me vale)
A ella no le vale con que le escriba canciones (Ah, ah, ah, ah)
Ingobernable, el amor de mis amores (Que no me vale)
[Post-Estribillo]
Que no me quieres querer
Que no me quieres querer (Que no, que no)
Que no me quieres querer
No me quieres querer (Que no, que no)
Que no me quieres querer (Que no me quieres querer)
Que no me quieres querer (Que no me quieres querer)
Que no me quieres querer (Que no, que no)
Que no me quieres querer (Ah; eso)
No, no ha pasado tanto (Nah)
No ha pasado tanto (Que no, que no)
No ha pasado tanto desde el día en que te conocí (Ni una pistola)
Y tú no has querí'o hacer caso (Nada)
No has hecho ni caso (No; ni una pistola)
De to'a las señale' que he ido dejando y que eran para ti
Porque te quiero (Vale)
¿Que cómo te lo tengo que decir?
Se ha entera'o to' el mundo que me tienes loco,
esto no es vivir (Que no, que no)
[Estribillo]
Ni una escalera para poder alcanzarte
Ni una pistola para poder gobernarte
Ni una escalera para poder alcanzarte
Ni una pistola para podеr gobernarte
[Outro/Post-Estribillo]
Que no me quieres querer (Ni una)
Que no me quieres querer (Ni una)
Que no me quieres querer (Ni una)
No me quieres querer (Ni una pistola)
Que no me quieres querer (Que no me quieres querer)
Que no me quieres querer (Que no me quieres querer)
Que no me quieres querer (Que no, que no)
Que no me quieres querer




[Ingobernable acordes][Ingobernable chords]
© LaCuerda.net · notícia legal · privacidade · es · en · pt · contato
DINAMICO