Cifras para Violão e Guitarra » C »Café Tacuba » el Baile y el Salón (Tab)

el Baile y el Salón
Café Tacuba

Letras, cifras e tablaturas para violão, guitarra, piano, ukulele e baixo

  • INTRO [A Bm E] A
    
    
    Nos besamos bailando   
    
    en medio del lugar   
            Bm           E
    La musica ya iba llegando 
                  A
    al ultimo compas 
    
    Miradas en silencio 
    
    y quien lo iba pensar   
                   Bm           E
    que despues de este primer baile   
                   A
    me iba a enamorar         
    
    
    
  • A7/A# Bm E
    
    A7/A#
    Papara papa eueo Parapa papa eueo
    
    Bm            E  A7/A#
    Papara papa eueo Parapa papa eueo
    
    Verso:
    
    A
    Nos besamos bailando
    
    en medio del lugar
            Bm           E
    La musica ya iba llegando
                  A
    al ultimo compas (Papara papa eueo) <--(segunda voz al finalizar verso)
    
    Miradas en silencio
    
  • 6=E  3=G
    5=A  2=B
    4=D  1=E
                   intro:4/4
    
       ARREGLO PIANO
    E||--------------------|-------------------||
    B||--2--------3--------|--1----------------||
    G||--1--------1--------|--1----------------||
    D||--2--------0--------|--2----------------||
    A||--0-----------------|-------------------||
    E||--------------------|-(4)---------------||
    
    
    guitarra 1
                                      riff 1:
        papa ra pa pa eoo eoo
    E||-0--0--0-0-0--2-0-0-0-|-0--0--0-0-0--2-0-0-0-||
    B||-2--2--2-2-2--2-2-2-2-|-2--2--2-2-2--2-2-2-2-||
    G||-1--1--1-1-1--1-1-1-1-|-1--1--1-1-1--1-1-1-1-||
    
  •        Amaj7*    Bm*     E*
    E |---0---|---0---|---7---|
    B |---5---|---0---|---0---|
    G |---6---|---7---|---7---|
    D |---6---|---7---|---6---|
    A |---0---|---0---|---7---|
    E |---5---|---7---|---0---|
    
    Estrofa 5
    
               F       G      Em      F#m      C
    E |---1---|---3---|---0---|---2---|---0---|
    B |---1---|---3---|---0---|---2---|---1---|
    G |---2---|---4---|---0---|---2---|---0---|
    D |---3---|---5---|---2---|---4---|---2---|
    A |---3---|---5---|---2---|---4---|---3---|
    E |---1---|---3---|---0---|---2---|---3---|
    
    Coros
               D      C#m     Bm       A
    
  • verso
    G-----------------|
    D-----------------|
    A-----------------|
    E-5-5--5-5-5--0-0-|
    
    verso
    G----------------------------------------------------------|
    D----------------------------------------------------------|
    A----------------------------------------------------------|
    E-5-5--5-5-5--5--0-0--7-7--7-7-7--7--0-0-4-4--4-4-4--4-0-0-|
    
    verso
    G----------------------------------|
    D----------------------------------|
    A----------------------------------|
    E-5-5--5-5-5--5--0-0--5-5-5-5—5/9--|
    
    Coro
    G-----------------------------------------|
    D--------------------------------2-2------|
    A-5-5--4-4-2-2-0----5-5-4-4-5-5-------0-4-|
    E----------------2------------------------|
    
    Coro
    G------------------------------|
    D------------------------------|
    A-5-5-4-4-2-2-0----0-5--5--4-4-|
    E----------------2-------------|
    
    Coro
    G------------------------|
    D------------------------|
    A------------------------|
    E-5-5--5-5-5--0-0--------|
    
    verso
    G-----------------------------------------------------------|
    D---
  • Buenísima canción y muy fácil. Escúchenla bien para llevar bien los tiempos
    
    2da estrofa de 1er verso
    Empieza a tocar inmediatamente
    después que termina la primera estrofa del 1er verso
    G|-------------------------------------|
    D|-------------------------------------|
    A|-------------------------------------| x3
    E|--5—-5--5-5--00055--5--5--5-5--00055-|
    
    G|--------------------------------------------------|
    D|--------------------------------------------------|
    A|-2--2--2-2-22222----------------------------------|
    E|------------------4--4—-4-4-44444—-5—-5—-5-5-00055|
    
    Coro:
    G|-----------------------------|
    D|-----------------------------|
    A|--5-5--4-4-------------------|
    E|------------7-7--5-5--55-----|
    
    G|-----------------------------|
    D|-----------------------------|
    A|--5-5--4-4--5-5--7-7---------|
    E|----------------------55-----|
    
    G|-----------------------------|
    D|-----------------------------|
    A|--5-5--4-4-------------------|
    E|------------7-7--5-5--55-----|
    
    G|------------
  • +
    ¡Colabora con nosotros!
    Envíanos tu versión de esta canción
  • Tutorial
    HD
    Como Tocar El Baile Y El Salón - Cafe Tacuba [Tutorial Guitarra]
    11:45
  • Tutorial
    HD
    Como tocar "El baile y el salon" de Cafe tacuba en guitarra
    9:26
  • Tutorial
    Como tocar El Baile y el Salón, solo de Santaolalla
    1:10
  • Tutorial
    HD
    Como tocar EL BAILE Y EL SALÓN en guitarra - Café Tacuba [Tutorial Rockstars]
    12:37

Letra de el Baile y el Salón
Nos besamos bailando
en medio del lugar
La musica ya iba llegando
al ultimo compas
Miradas en silencio
y quien lo iba pensar
que despues de este primer baile
me iba a enamorar
Yo que era un solitario bailando
me quede sin hablar
Mientras tu me fuiste demostrando
que el amor es bailar
La vida es un gran baile
y el mundo es un salon
y hay muchas parejas bailando
a nuestro alrededor
Y entre toda esta gente
nos fuimos a encontrar,
pareciamos predestinados para asi bailar
Yo que era un solitario bailando
me quede sin hablar
Mientras tu me fuiste demostrando
que el amor es bailar
Y ahora que estamos en la pista tu y yo
no quiero que dejemos de bailar asi
pues vienen otros ritmos
que te quieren separar de mi
y no pueda abrazarte ni sentir tu cuerpo
y vuelva a bailar solo como antes
de estar junto a ti
Y asi bailando quiero
que me hagas el amor
de hombre a hombre
voulez-vous coucher avec moi?
Yo que era un solitario bailando
me quede sin hablar
Mientras tu me fuiste demostrando
que el amor es bailar
Yo que era un solitario bailando
me quede sin hablar
Mientras tu me fuiste demostrando
que el amor es bailar




[el Baile y el Salón acordes][el Baile y el Salón chords]
© LaCuerda.net · notícia legal · privacidade · es · en · pt · contato
DINAMICO