Cifras para Violão e Guitarra » C »Café Tacuba » Perfidia (Tab)

Perfidia
Café Tacuba

Letras, cifras e tablaturas para violão, guitarra, piano, ukulele e baixo

  •      DOm     SOL7dim        FAm
    1). Nadie Comprende lo que sufro yo
         SOL7                   DOm
    2). Canto que ya no puedo sollozar
         DOm    SOL7dim          FAm
    3). solo, temblando de ansiedad estoy
        SOL7               DO
    4).todos me miran y se van
    
    NOTA1: Esta parte anterior de la canciòn en muchas interpretaciones no se
    encuentra.
    NOTA2: Los nùmeros indican el nùmero de cada linea.
    
           DO-LAm-REm
    5). Mujer
         SOL7            DO     LAm  REm
    6). Si puedes tù con Dios hablar
         SOL7         DO        LAm
    7). pregùntale si yo alguna vez
              REm    SOL7  DO LAm-REm-SOL7     
    
  • Esta canción esta muy fácil. Para que suene bien toca atrás de la boca de la guitarra
    
    
    Esta es la primera parte. La vas a Tocar dos veces.
    
    e |---------------|----------------------|---------------------------|
    B |---------------|----------------------|---------------------------|
    G |---------------|----------------------|---------------------------|
    D |------2--------|-1-2---4---2-1-2-1----|---1-2--4---2-1-2-1----2---|
    A |----2----------|--------------------4-|---------------------4-----|
    E |---------------|----------------------|---------------------------|
    
    e |----------------------|-------------------------------------------|
    B |----------------------|-------------------------------------------|
    G |----------------------|-------------------------------------------|
    D |----------------------|------2----1-2--4--2-1-2-1-----------------|
    A |----4-2----2-4--------|----2-----------------------4--------------|
    E |--------4-------4-3---|-------------------------------
  • E       |---7--------------------------------9---|-------------------------------9---------|--------------9--7--5--7--9--5--4-------|
    B       |-------7----6--7--9--7--6--7--6---------|-----6--7--9--7--6--7--6--------7--------|----------------------------------------|
    G       |----------------------------------------|-----------------------------------------|----------------------------------------|
    D       |----------------------------------------|-----------------------------------------|----------------------------------------|
    A       |----------------------------------------|-----------------------------------------|----------------------------------------|
    E       |----------------------------------------|-----------------------------------------|----------------------------------------|
    
    
    E       |---7--------------------------------9---|-------------------------------9---------|-------------9--7--5--7--9--------------|
    B       |-------7----6--7--9--7--6--7--6---------|-----6--7--9--7--6--7--6--------7--------|-----------------------------9--7-------|
    G       |----------------------------------------|-----------------------------------------|----------------------------------------|
    D       |----------------------------------------|-----------------------------------------|----------------------------------------|
    A       |----------------------------------------|-----------------------------------------|----------------------------------------|
    E       |----------------------------------------|-----------------------------------------|----------------------------------------|
               
    E       |---7--------------------------------9---|-------------------------------9---------|----------9--7--5--7--9--5--4-----------|
    B       |-------7----6--7--9--7--6--7--6---------|-------6--7--9--7--6--7--6--------7------|----------------------------------------|
    G       |----------------------------------------|-----------------------------------------|----------------------------------------|
    D       |----------------------------------------|-----------------------------------------|----------------------------------------|
    A       |----------------------------------------|-----------------------------------------|----------------------------------------|
    
  • +
    ¡Colabora con nosotros!
    Envíanos tu versión de esta canción

Letra de Perfidia
1). Nadie Comprende lo que sufro yo
2). Canto que ya no puedo sollozar
3). solo, temblando de ansiedad estoy
4).todos me miran y se van
NOTA1: Esta parte anterior de la canciòn en muchas interpretaciones no se
encuentra.
NOTA2: Los nùmeros indican el nùmero de cada linea.
5). Mujer
6). Si puedes tù con Dios hablar
7). pregùntale si yo alguna vez
8). te he dejado de adorar
9). al mar
10).espejo de mi corazòn
11).las veces que me ha visto llorar
12).la perfidia de tu amor
13).Te he buscado por doquiera que yo voy
14).y no te puedo hallar
15).para què quiero tus besos
16).si tus labios no me quieren ya besar
17).Y tù
18).Quien sabe por dònde andaràs
19).quièn sabe que aventura tendràs
20).que lejos estàs de mì
(Bis desde la linea 13)
NOTA4:La cejilla es el dedo indice cubriendo todas las cuerdas, desde la
primera
hasta la sexta.
Dom= cejilla en el tercer cuadrante, dedo medio tercera cuerda cuarto
cuadrante,
dedo anular quinta cuerda quinto cuadrante y dedo meñique cuarta cuerda
quinto cuadrante.
Sol7dis= indice primer cuadrante cuarta cuerda, medio primer cuadrante
segunda cuerda,
anular segundo cuadrante tercera cuerda y meñique segundo cuadrante primera
cuerda.
Fam= cejilla primer cuadrante, medio al aire, anular tercer cuadrante
quinta cuerda y
meñique tercer cuadrante cuarta cuerda.
Sol7= indice primer cuadrante primera cuerda, medio segundo cuadrante
quinta cuerda y
anular segundo cuadrante sexta cuerda.
Mi7= indice primer cuadrante tercera cuerda, medio segundo cuadrante quinta
cuerda,
anular segundo cuadrante cuarta cuerda y meñique tercer cuadrante segunda
cuerda.
NOTA5: en Mi7, muchos guitarristas no usan el meñique; si quieren saber la
explicaciòn envienme un Email y yo se las dirè. Carlos_Alviz@yahoo.com
Por ultimo si quieren compartir temas sobre cualquier clase de musica que
no sea Rock pesado
o mejor dicho heavy metal no duden en comunicarse conmigo.
Yo no soy un sabelotodo, tengo 16 años y estoy solo aprendiendo a tocar
mi nueva guitarra electrica, con los conocimientoa que habìa adquirido con
la guitarra
acustica. Comunicate conmigo para poder intercambiar canciones.
Tengo en mi poder màs de 150 canciones de todo tipo: boleros, ranchera,
tango, rock en español e ingles
musica de los años 60, baladas vallenatos y otras




[Perfidia acordes][Perfidia chords]
© LaCuerda.net · notícia legal · privacidade · es · en · pt · contato
DINAMICO