Cifras para Violão e Guitarra » C »Los Cantores del Alba » Cuando llora mi guitarra (Tab)

Cuando llora mi guitarra
Los Cantores del Alba

Letras, cifras e tablaturas para violão, guitarra, piano, ukulele e baixo

  •   FA#m                             SIm
      cansado de llamarte con mi alma destrozada
                                                DO# 
      comprendo que no vienes por q" no quiere dios
    
    
      SIm                              FA#m
      y al ver que inutilmente te envio mis palabras
                  DO#                    FA#m           SE REPITE!!
      llorando mi guitarra.. te deja oir tu voz..
    
      FA#7
      ESTRIBILLO..
     SIm
      llora guitarra por que eres mi voz de dolor
     FA#m
      grita su nombre de nuevo si no te escucho
    FA#7   SIm
      y.. dile..
                                              FA#m
    
  • E|--12--8---7-----5---------8--7--8---7------8-----7--------7-----5-----3--
    B|--13--10--8--7--------10-----9--10--9--10-----8-----7--8-----7-----5-----
    G|-------------------------------------------------------------------------
    D|-------------------------------------------------------------------------
    A|-------------------------------------------------------------------------
    E|-------------------------------------------------------------------------
    
    E|-----0--3-----7-----------------7-----5--4-----5-----3-----2--
    B|--0-----5--8-----7--8--7--7--8-----7-----6--7-----5-----4-----
    G|--------------------------------------------------------------
    D|--------------------------------------------------------------
    A|--------------------------------------------------------------
    E|--------------------------------------------------------------
    
    E|--------------------------------------------------------0-----0-----0-----
    B|--0--1--0-----0-----------------------------------------------------------
    G|-----------3--------------------------------------------------------------
    D|-----------------------------------4--1--------------------------------2--
    A|--------------------2--3--2--1--2--------2--0--------------------2--------
    E|-----------------------------------------------3--2--0-----3--------------
    
  • +
    ¡Colabora con nosotros!
    Envíanos tu versión de esta canción

Letra de Cuando llora mi guitarra
cansado de llamarte con mi alma destrozada
comprendo que no vienes por q" no quiere dios
y al ver que inutilmente te envio mis palabras
llorando mi guitarra.. te deja oir tu voz..
ESTRIBILLO..
llora guitarra por que eres mi voz de dolor
grita su nombre de nuevo si no te escucho
y.. dile..
que aun la quiero que aun la espero que vuelva
que si no viene mi amor no tiene consuelo
que solitario sin su cariño me muero
guitarra..
tu que interpretas en tu vibrar mi quebrato
tu que recibes en tu madero mi llanto
llora conmigo si no la vieras volver
guitarra...
Y EL FINAL
llora con mi dolooooooor...
espero q' les guste!!!!




[Cuando llora mi guitarra acordes][Cuando llora mi guitarra chords]
© LaCuerda.net · notícia legal · privacidade · es · en · pt · contato
DINAMICO