Cifras para Violão e Guitarra » C »Carlos Gardel » Caminito (Tab)

Caminito
Carlos Gardel

Letras, cifras e tablaturas para violão, guitarra, piano, ukulele e baixo

  • Am             E7       Am
    Caminito que el tiempo ha borrado,
       Am7        A7              Dm
    que juntos un día nos viste pasar,
                     F    E7
    he venido por última vez,
         B7          F      E7
    he venido a contarte mi mal.
       Am            E7       Am
    Caminito, que entonces estabas
        Am7      A7               Dm
    bordado de trébol y juncos en flor,
                           Am
    una sombra ya pronto serás,
          Dm       E7         A E A E A
    una sombra, lo mismo que yo.
    
                  E7
    DESDE QUE SE FUE
                 A
    
  • Esta cancion es muy lida especialmente si se hace el punteo con electrica y los acordes cos criolla
    bueno aca va
    
    e------------------------------------------------------------------------------
    B------------------------------------------------------------------------------
    G-----2-2-2-2-2-2-3-2-2-4-3-2-3-2-2-2-0---0-0-0-0-------0----------------------
    D-0-3-----------------------------------4---------3-3-3---3-2-2-2-2-0-0-0-2-0--
    A-----------------------------------------------------------------------------4
    E------------------------------------------------------------------------------
    
    e------------------------------------------------------------------------------------
    B------------------------------------------------------------------------------------
    G-----2-2-2-2-2-2-3-2-2-4-3-2-3-2-2-2-3-4-3-3-3-3-3-3-3------------------------------
    D-0-3---------------------------------------------------2-1-2--0-0-0-----------------
    A----------------------------------------------
  • +
    ¡Colabora con nosotros!
    Envíanos tu versión de esta canción

Letra de Caminito
Caminito que el tiempo ha borrado,
que juntos un día nos viste pasar,
he venido por última vez,
he venido a contarte mi mal.
Caminito, que entonces estabas
bordado de trébol y juncos en flor,
una sombra ya pronto serás,
una sombra, lo mismo que yo.
DESDE QUE SE FUE
TRISTE VIVO YO,
CAMINITO AMIGO,
YO TAMBIÉN ME VOY.
DESDE QUE SE FUE
NUNCA MÁS VOLVIÓ,
SEGUIRÉ SUS PASOS,
CAMINITO, ADIÓS.
Caminito, que todas las tardes
feliz recorría cantando mi amor,
no le digas si vuelve a pasar
que mi llanto tu suelo regó.
Caminito cubierto de cardos,
la mano del tiempo tu huella borró...
yo a tu lado quisiera caer,
y que el tiempo nos mate a los dos. se repite”DESDE QUE”..




[Caminito acordes][Caminito chords]
© LaCuerda.net · notícia legal · privacidade · es · en · pt · contato
DINAMICO