Cifras para Violão e Guitarra » C »Carlos Vives » Fruta Fresca (Tab)

Fruta Fresca
Carlos Vives

Letras, cifras e tablaturas para violão, guitarra, piano, ukulele e baixo

  • Intro  Am  E*  E                     E*   023230
    
    Am                                          E*
    Ese beso de tu boca que me sabe a fruta fresca,
                            E7                      Am
    que se escapó de tus labios y se metió en mi cabeza.
    Ese beso con que sueño cuando las penas me acechan
    que me lleva al mismo cielo y a la tierra me regresa.
    
    Que reza, reza, que reza y aunque ya no tengas cura
    que el recuerdo de sus besos me lleve hasta la locura.
    
    CORO
    
    Si, si, si, que este amor es tan profundo
    que tú eres mi consentida
    y que lo sepa todo el mundo. (bis)
    
    Que tú eres mi consentida la niñita de mis ojos
    la que me endulza la vida la que calma mis enojos.
    
  • Am                                      Dm
    Ese beso de tu boca que me sabe a fruta fresca que se escapo de tu
    E                         Am
    Labios y se metio en mi cabesa, ese beso con que sueño cuando las 
              Dm                            E                      Am
    penas se acercan que me lleva al mismo cielo y a la tierra me regresa
                                                     Dm
    hay que reza reza que reza y aunque ya no tenga cura, y el recuerdo 
            E                        Am
    de sus besos me lleve hasta la locura.
    
    coro:
    Am                          Dm                            E
    Si si si este amor es tan profundo, que tu eres mi consentida y que 
                     Am 
    lo sepa todo el mundo.( bis )
    
    Am                                          Dm
    Que tu eres mi consentida la niñita de mis ojos, la que me endulza la 
    E                       Am 
    
  • E||--------------------------|---------------------------|
    B||----------1----0----------|--0------------1----0------|
    G||-------2---------------2--|----2-------2--------------|
    D||-----2-------2------2-----|----------2-------2------2-|
    A||--0-----------------------|-------0-------------------|
    E||--------------------------|---------------------------|
                                                                                    
    ---------------------------|--------------------------|------------------------|
    ------0------------3----0--|----------0---------------|------------0-----------|
    ---2----2-------2----------|-------2----2----------2--|----1----------1--------|
    --------------3-------3----|----3---------------0-----|------------------0-----|
    -----------0---------------|------------------2-------|--2------2--------------|
    ---------------------------|---------------0----------|------------------------|
    
    --El tema se repite 4 veces, en la 2. comienza la voz
    despues toca las cordes Am, Am, Asus4add13 y E7sus4
    Am         x02210
    Asus4add13 x03230
    E7sus4     020200--
    
    
  • INTRO
    |---------------------------------------------------------------------------|
    |---------------------------------------------------------------------------|
    |---------------------------------------------------------------------------|
    |----------------------------------------------------------0----------------|
    |--------3--0--2-----0----------3--0--2-----0-----------0-----0--2-----0----|
    |--5--0-----------0-----0-5--0-----------0-----0--5--1--------------1-----1-|
    
    
    |----------------------------------------|
    |----------------------------------------|
    |----------------------------------------|
    |----------------------------------------|
    |-------0-----------2-----2--------3--0--|
    |-5--5-----5--4--5-----4-----5--0--------|
    
    
    AQUÍ EMPIEZA A CANTAR 
    
      Ese  beso  de  tu  boca  que  me  sabe  a  fruta  fresca  que  se  escapó 
    |---------------------------------------------------------------------------|
    |-------------------------------------------------------------
  • +
    ¡Colabora con nosotros!
    Envíanos tu versión de esta canción
  • Tutorial
    HD
    FRUTA FRESCA - Carlos Vives: SOLO tutorial guitarra TAB #32
    0:34

Letra de Fruta Fresca
Ese beso de tu boca que me sabe a fruta fresca,
que se escapó de tus labios y se metió en mi cabeza.
Ese beso con que sueño cuando las penas me acechan
que me lleva al mismo cielo y a la tierra me regresa.
Que reza, reza, que reza y aunque ya no tengas cura
que el recuerdo de sus besos me lleve hasta la locura.
Si, si, si, que este amor es tan profundo
que tú eres mi consentida
y que lo sepa todo el mundo. (bis)
Que tú eres mi consentida la niñita de mis ojos
la que me endulza la vida la que calma mis enojos.
La que se pone mas linda cuando la llevo a una fiesta
esa que siempre en mi cama con los Ángeles se acuesta.
Y que digan en la radio que yo te quiero de veras
que lo digan en los diarios y después en la novela
Quiero un letrero que diga que como tú no hay ninguna
que lo digan en la China que lo digan en la luna.
guararé, guararé, guararé, guararé, guararé
guararé, guararé, no me olvides que yo no te olvidaré.




[Fruta Fresca acordes][Fruta Fresca chords]
© LaCuerda.net · notícia legal · privacidade · es · en · pt · contato
DINAMICO