Cifras para Violão e Guitarra » C »Chancho en Piedra » Volantín (Tab)

Volantín
Chancho en Piedra

Letras, cifras e tablaturas para violão, guitarra, piano, ukulele e baixo

  • Volantin
    					 
    E|----------------------------------|
    B|----------------------------------|
    G|-9p11-9---------------------------|
    D|--------11p12-11-11p12-11-9-------|
    A|----------------------------12-10-|
    E|----------------------------------|
    						
    Verso:  estos son los acordes ocupados				
         #1            #2                    #3 					
    E|-xx-------||-xx--------||-xx-------|/|-xx-------|-xx-------|
    B|-xx-------||-xx--------||-xx-------|/|-xx-------|-xx-------|
    G|-------14-||--------12-||-------12-|/|-------14-|-------12-|.
    D|-------14-||--------12-||-------12-|/|-------14-|-------12-|
    A|-12-------||-10--------||-10-------|/|-12-------|-10-------|
    E|-xx-------||-xx--------||-xx-------|/|-xx-------|-xx-------|
    
    #1                                              #2 #3 #2 #3 
    Miro hacia el cielo con mi derecha me pongo a elevar
    #1                                            #2 #3 #2 #3
    no se imaginan todo el placer ke esto a mi me da y no te miento
    #2                
  • e-----2-0----------------!
    B---------3-2-3-2-0------!
    G-------------------2-0--!
    D------------------------!
    A------------------------!
    E------------------------!
    
    
    
    NOTAS
    
    LA7 SOL7 FA7
    
    e---9---- ---7--- ---5---
    B---8---- ---6--- ---4---
    G---9---- ---7--- ---5---
    D---7---- ---5--- ---3---
    A-------- ------- -------
    E-------- ------- -------
    
    
  • Intro
    |------------------------|
    |-2h4-2------------------|
    |-------4h5-4--4-5-2-----|
    |--------------------5-3-|
    
    Verso (Miro hacia el cielo....)
    |----------------------------------------------------------|
    |----7------------7------------------54-------4h554--------|
    |---7---4~-5-7---7---5~-7-5-------5-5--5----5------5-------|
    |-5-----------5-------------7-5-3~-------33~---------------|
    
     (No se imaginan.....)
    
    |---------------------------------------------------------|
    |----7------------7---------------54------7575------------|
    |---7---4~-5-7---7-5----------5-5---5---5-----75----------|
    |-5-----------5-----0-2-5-4-3~--------3~--------753-------|
    
      (Hago las tirantes y me pongo........)
    |---------------------------------|
    |----------------------5----------|
    |----------5--------5h7--75-------|
    |-3-3--3-3---3--555--------5/-----|
    
     (Mas alla del cielo.....)
    |-----6-7-9-7-6-------6------------------------|
    |-7-9-----------9-7-9----9-7---5---------------|
    |-------------------------------
  • Intro 
    |------------------------|
    |-2h4-2------------------|
    |-------4h5-4--4-5-2-----|
    |--------------------5-3-|
    
    Verso (Miro hacia el cielo....)
    |----------------------------------------------------------|
    |-----7-----------7-----------------5-4----------5-4-------|
    |---7----5--7---7---5-5-7-5-----5-5-----5----5-5-----5-----|
    |-5-----------5-------------5-3------------3-----------3...|
    
     (No se imaginan.....)
    |----------------------------------------------------------|
    |-----7----------7---------------5-4----------5-4----------|
    |---7---5--7---7-------------5-5-----5----5-5-----4h5p4----|
    |-5----------5-----0-2-5-4-3------------3------------------|
    
     (Hago las tirantes y me pongo........)
    |-------------------------------|
    |-------------------------------|
    |----------5------------5-7-----|
    |-3-3--3-3---3--5-5-5-5-----5/--|
    
     (Mas alla del cielo.....)
    |-----4-6-7-6-4-------4------------------------|
    |-5-7-----------7-5-7----7-5---3--3-2-0--------|
    |---------
  • +
    ¡Colabora con nosotros!
    Envíanos tu versión de esta canción






[Volantín acordes][Volantín chords]
© LaCuerda.net · notícia legal · privacidade · es · en · pt · contato
DINAMICO