Cifras para Violão e Guitarra » C »Chaqueño Palavecino » Chacarera Del Olvido (Tab)

Chacarera Del Olvido
Chaqueño Palavecino

Letras, cifras e tablaturas para violão, guitarra, piano, ukulele e baixo

  • 1||----||--|--||--|--|--
    2||----||--|--||--|--|--
    3||----||--|--||--|--|--
    4||----||--|--||--|--|--
    5||----||--|--||--|--|--
    6||----||--|--||--|--|--
           👋  👎 👋  👎 👍
    
    1||----------0---0----------------
    2||----0-1-3---3-----1-1-0--------
    3||--2-------------2-------2-1-2--
    4||-------------------------------
    5||-------------------------------
    6||-------------------------------
    
    1||----------0---0----------------
    2||----0-1-3---3-----1-1-0--------
    3||--2-------------2-------2-1-2--
    4||-------------------------------
    5||-------------------------------
    
  •            MI7     LA    MI7     LA  
    1¦¦----------------------------------
    2¦¦---------5----5-------------------
    3¦¦-----5-7----7--------5-5-4--------
    4¦¦---7------------7----------7-6-7--
    5¦¦-7--------------------------------
    6¦¦----------------------------------
                  MI7   LA        MI7    LA
    1¦¦----------------------------------------
    2¦¦---------------5---5--------------------
    3¦¦-----4-5-4-5-7---7------9-9-9-9-7-5-4-5-
    4¦¦-6-7-----------------7------------------
    5¦¦----------------------------------------
    6¦¦----------------------------------------
    
       LA           MI7
    Se acabó el querer
                 LA
    luego la pasión
    RE            LA
    
  • +
    ¡Colabora con nosotros!
    Envíanos tu versión de esta canción

Letra de Chacarera Del Olvido
Se acabó el querer
luego la pasión
se llenó de olvido
el montanar del amor.
Introducción
Como imaginar
que la libertad
no tiene sentido
Introducción
Cuando caiga el sol
al atardecer
echaré de menos
el calor de tu piel.
Llevaré en mi pecho
todo lo vivido
y aunque con olvido
hayas pagado mi amor.
Introducción
Intenté olvidar
todo entre los dos
pero no se tapa
con las manos el sol.
Introducción
Late corazón
no calles tu voz
largo es el camino
pa'l que carga un dolor.
Introducción
Sueños de un amor
vivimos los dos
ya se ha vuelto polvo
dentro del corazón.
Llevaré en mi pecho...




[Chacarera Del Olvido acordes][Chacarera Del Olvido chords]
© LaCuerda.net · notícia legal · privacidade · es · en · pt · contato
DINAMICO