Cifras para Violão e Guitarra » C »Chavela Vargas » Llorona (Tab)

Llorona
Chavela Vargas

Letras, cifras e tablaturas para violão, guitarra, piano, ukulele e baixo

  • C#m               A6
    Todos me dicen el negro, llorona
    C#m            G#7                              
    negro pero cariñoso  [x2]  
                             
       C#m               B
    Yo soy como el chile verde, llorona
      A            G#                                  
    picante pero sabroso    [x2] 
                              
    C#m           A6
    Ay de mí,  llorona, llorona,
      C#m              G#7                              
    llorona llévame al rio.
      C#m           B
    Tapame con tu rebozo llorona 
    A                  G#                                 
    porque me muero de frio.
       C#m              A6
    Si porque te quiero quieres, llorona
    
  • LAm, REm
    
    LAm                 REm
    no se que tienen las flores llorona 
          LAm             MI7
    las flores del campo santo(bis)
          LAm               SOL
    que cuando las mueve el viento llorona
     FA              MI
    parece que estan llorando(bis)
    LAm        REm      LAm               MI7
    hay de mi llorona, llorona tu eres mi yunta(bis)
    LAm            SOL
    me quitaran de quererte llorona
           FA         MI
    pero de olvidarte nunca(bis)
    
    
    LAm                 REm
    a un santo cristo de fierro llorona
    
  • |---------------------------------------------||
    |---------------------------------------------||
    |----------0--1----3--1--0------------------0-||
    |--3--2--3-----------------3--0--1--0--1--3---||
    |---------------------------------------------||
    |---------------------------------------------||
    
    |-------------------------------------------0-||
    |-------------------------------------------1-||
    |--3--1--0----------------------1--0--------2-||
    |----------3--1------------1--3------3--2---2-||
    |---------------3--4--3--4------------------0-||
    |-------------------------------------------0-||
    Esta parte procura tocarla con un pañuelo en el brazo para que la 
    puedas apagar o dar el toque suave
    
    |---------------------------------------------||
    |---------------------------------------------||
    |----------0--1----3--1--0------------------0-||
    |--3--2--3-----------------3--0--1--0--1--3---||
    
  • +
    ¡Colabora con nosotros!
    Envíanos tu versión de esta canción

Letra de Llorona
no se que tienen las flores llorona
las flores del campo santo(bis)
que cuando las mueve el viento llorona
parece que estan llorando(bis)
hay de mi llorona, llorona tu eres mi yunta(bis)
me quitaran de quererte llorona
pero de olvidarte nunca(bis)
a un santo cristo de fierro llorona
mis penas le conte yo (bis)
cuales no serian mis penas llorona
que el santo cristo lloró(bis)
hay de mi llorona, llorona de un campo lirio(bis)
el que no sabe de amores llorona
no sabe lo que es martirio(bis)
dos besos llevo en el alma llorona
que no se apartan de mi(bis)
el ultimo de madre llorona
y el primero que te di(bis)
hay de mi llorona, llorona llevame al rio(bis)
tapame con tu reboso llorona porque me muero de frio(bis)




[Llorona acordes][Llorona chords]
© LaCuerda.net · notícia legal · privacidade · es · en · pt · contato
DINAMICO