Cifras para Violão e Guitarra » C »Chico Trujillo » Loca (Tab)

Loca
Chico Trujillo

Letras, cifras e tablaturas para violão, guitarra, piano, ukulele e baixo

  • Dm    Gm     A7
    Dm
    Loca, loca, loca,
                 Gm                         A7
    te volviste loca y disparaste frente a mí.
                        Dm
    Que te habías enamorado hace unos años sin decirme nada,
                    Gm               A7
    entonces la emoción confirma el sentimiento.
    
    Dm
    Loca, loca, loca,
                 Gm                         A7
    te volviste loca y disparaste frente a mí.
                        Dm
    Que te habías enamorado hace unos años sin decirme nada,
                    Gm               A7         D7
    entonces la emoción confirma el sentimiento-ohh
    
    Coro:
    
  • Dm: 557765
    Gm: 355333
    A7: 575655
    
    Riff
    
     Dm
    
    e|-1--1---1--1---1--1---1--1-----
    B|-3--3-3-2--2-2-1--1-1-0--0-0---
    G|-2-2----2-2----2-2----2-2------
    
    
    Intro:
    
        Dm                           Gm                 A7
    e|---5-------5-------5------5--------3--------3-------5-5------5-5--
    B|---6-6-----6-6-----6-6----6-6------3-3------3-3-----5-5------5-5--
    G|---7-7-----7-7-----7-7----7-7------3-3------3-3-----6-6------6-6--
    D|-----7-------7-------7------7------5-5--------5-----5--------5-5--
    
  • |----------------------------|
    |--------10-11-10------------|
    |-----10---------------------|  x4
    |--12------------------------|
    |----------------------------|
    |----------------------------|
    
    |--------10-12-10------------|
    |-----11---------------------|
    |--12------------------------|  x2
    |----------------------------|
    |----------------------------|
    |----------------------------|
    
    |----------------------------|
    |-------10-11-10-------------|
    |-----9----------------------|  x2
    |--11------------------------|
    |----------------------------|
    |----------------------------|
    
  • Dm: 557765
    Gm: 355333
    A7: 575655
    
    Riff
    
     Dm
    
    G|-2-2----2-2----2-2----2-2------
    B|-3--3-3-2--2-2-1--1-1-0--0-0---
    e|-1--1---1--1---1--1---1--1-----
    
    
    
    Intro:
    
        Dm                           Gm                 A7
    E|------------------------7-------3---------3-------5--------5------
    A|--5----0-4-----0-3---------------------5---------------7----------
    D|-----7-------7-------7------7------5-5--------5-----5--------5-5--
    
  • Es una version Unplugged, de los documentales de YATOKA.org
    La pueden encontrar en Youtube :)
    
    Intro
    
    G|------------------------------
    D|-------------------0--0-------
    A|--5-045-045-045---1--1--47-47-
    E|---------------543--3--5--5---
    
    Loca, loca, loca, te volviste...
    
    G|------------------------------------------
    D|----0--0------------------------0--0------
    A|---1--1--47-47-5-045-045-045---1--1--47-47
    E|--3--3--5--5----------------543--3--5--5--
    
    G|------------------------------
    D|-------------------0--0-------
    A|--5-045-045-045---1--1--47-47-
    E|---------------543--3--5--5---    x2
    
    ...Entonces la emocion confirma el sentimiento ooooh, que mala suerte...
    
    G|---------------------------------------
    D|---0--0---------------------0--0-------
    A|--1--1--47-47--5--5--5--5--1--1--47-47-
    E|-3--3--5--5---------------3--3--5--5---
    
    G|------------------------------
    D|-------------------0--0-------
    A|--5-045-045-045---1--1--47-47-
    E|---------------543--3--5--5---    x2
    
    Me muero por saber que paso c
  • Intro: despues de los vientos
    G|-----------------------------------
    D|-----------------------------------
    A|-5--5--5--5--------------55-7-55-7-
    E|--55-55-55-55-3-3-3-3-5-5----------
    
    Estrofa: loca...
    
    G|----------------------
    D|----------------------
    A|------------55-7-55-7-
    E|-3-3-3-3-5-5----------
    
    G|-----------------------------------
    D|-----------------------------------
    A|-5--5--5--5--------------55-7-55-7-
    E|--55-55-55-55-3-3-3-3-5-5----------
    
    que mala suerte en el amor..
    
    G|-----------------
    D|-5-5--5-5-7------
    A|--5----5---7-----
    E|------------5-50-
    
    y si al final....
    
    G|---------------------------------
    D|---------------------------------
    A|-5-4-3-22------------55-7-55-7---
    E|----------3-3-3-3-5-5------------
    
    me muero por saber que paso contigo...
    
    G|--------------
    D|--------------
    A|-5-------7-7--
    E|----3---5-5---
    
    G|-----------------------------------
    D|-----------------------------------
    A|-5--5--5--5--------------55-7-55-7-
    E|--55-55-55-55-3-3-3-3-5-5----------
    
    en el so
  • +
    ¡Colabora con nosotros!
    Envíanos tu versión de esta canción

Letra de Loca
Loca, loca, loca,
te volviste loca y disparaste frente a mí.
Que te habías enamorado hace unos años sin decirme nada,
entonces la emoción confirma el sentimiento.
Loca, loca, loca,
te volviste loca y disparaste frente a mí.
Que te habías enamorado hace unos años sin decirme nada,
entonces la emoción confirma el sentimiento-ohh
Que mala suerte en el amor y buena suerte en el juego
Dm * ** ***
Y si al final lo que hay que vivir, lo que hay que soñar, hay que vivirlo
Te vuelvo a dar gracias, te vuelvo a dar gracias.
Parte 2:
Me muero por saber que paso contigo,
en todos estos años en que no nos vimos.
Me muero por saber que paso en tu cama,
necesito esa cara de vulgaridad en mi cama,
la que pregunta por ti, la que me dice porque ...
No sabría definir las notas que marque con un *, ** y ***
pero en la practica, se debe tocar la nota base del Dm,
pero con el bajo en Db, C y B respectivamente
en vez de D. Así:
Dm * ** ***
|-4-| |-3-| |-2-|




[Loca acordes][Loca chords]
© LaCuerda.net · notícia legal · privacidade · es · en · pt · contato
DINAMICO