Cifras para Violão e Guitarra » C »Coalo Zamorano » Eres fiel (Tab)

Eres fiel
Coalo Zamorano

Letras, cifras e tablaturas para violão, guitarra, piano, ukulele e baixo

  • RE-Armonizado
    
    Key: E
    
    [Estrofa]
    C#m7                Abm7           Amaj9  C#11 F#m11
    Señor eres fiel y tu misericordia eterna,
    C#m11               Abm7           Amaj9  C#11 F#m11
    Señor eres fiel y tu misericordia eterna,
    Aadd9           C#m7
    gente de toda lengua y nación
           D11         Am11     B11
    de generación a generación.
    
    
    [Coro]
         E      B    D      A
    Te adoramos hoy aleluya, aleluya,
         E      B    A/D     (B G A E G A) Ab /C# A/D
    te adoramos hoy, eres Señor,
    
  • X 3 D, A/D, C/D, G/D
    
    VERSO:
         D                  A/D           C/D    G/D
    //SEÑOR ERES FIEL Y TU MISERICORDIA ETERNA//(en la 2ª
    vuelta quédate en do)
    G              A/G                Bb/G
    GENTE DE TODA LENGUA Y NACION DE GENERACION A
    Bb     C
    GENERACION
    
    CORO:
           D     A  C       G
    TE ADORAMOS HOY ALELUYA ALELUYA
           D     A          C   G
    TE ADORAMOS HOY ERES SEÑOR
           D     A  C       G
    TE ADORAMOS HOY ALELUYA ALELUYA
           F#m   Am7
    TE ADORAMOS HOY ERES
    
  • D A/D C/D G/D
    
      D                   A/D          C/D    G/D
    SEÑOR ERES FIEL Y TU MISERICORDIA ETERNA//(en la 2a vuelta quedate en do)
    G             A/D                 G
    GENTE DE TODA LENGUA Y NACION DE GENERACION A
     Bb    C
    GENERACION
    
    
           D     A  C       G              D     A
    TE ADORAMOS HOY ALELUYA ALELUYA TE ADORAMOS HOY ERES
       C   G
    SEÑOR
           D     A  C       G              F#    A
    TE ADORAMOS HOY ALELUYA ALELUYA TE ADORAMOS HOY ERES
       Bb    C           D
    SEÑOR         ERES FIEL
    
    viene una parte donde puedes hacer el intro y el bajo sobre Dm
    
  • bueno pues ahi estan mas o menos como los pude sacar de verdad me
    esforce asi que 
    si no estan bien pues no se la bañen Dios les bendiga
    intro:
    yo uso la cuerda de si si su bajo es de 4 cuerdas pues nomas
    no le presten atencion
    y toquenlo en cuerda de la
    B---3-3-----------3-3------------3-3----------------------22-
    E--------5-5s7-5-------55-5s7-5-------55-5s7-5--333-22-00----
    A------------------------------------------------------------
    D------------------------------------------------------------
    G------------------------------------------------------------
    
    estrofa:el adorno al final del intro es para caer al D
    B---3-3-----------3-3------------3-3------------3-3------
    E--------------------------------------------------------
    A------------------------------------3s5------------3s5--   x 2
    D--------------------------------------------------------
    G--------------------------------------------------------
    
    precoro:
    B---------------------3----------------------------
  • Hola ahora voy con esta cancion bien origial
    En el intro te quedas en D
    
    Estrofa
    B----------------------------------------------|
    E-------------------3--7--10--------3--7--10---|
    A--5-5---5-5---5-5-------------5-5-------------|
    D----------------------------------------------|
    G----------------------------------------------|
    2 veces
    
    Gente de toda...
    B--------------------------|
    E--3-------5---------------|
    A-----5---------1-1---3----|
    D--------------------------|
    G--------------------------|
    
    coro:
    B----------------------------------------------|
    E--------------------5--5-5------------3--3-3--|
    A-5-s-17---5---5-5------------3--3-3-----------|
    D----------------------------------------------|
    G----------------------------------------------|
    
    3 veces, en la 4 vez va:
    
    B------------------------------------------|
    E--2---2--2----5--5-5----------------------|
    A-----------------------3--3-3------3-3-3--|
    D------------------------------------------|
    G------------
  • +
    ¡Colabora con nosotros!
    Envíanos tu versión de esta canción
  • Tutorial
    Tutorial de Guitarra - Señor eres Fiel - Más Como Jesús
    12:06

Letra de Eres fiel
SEÑOR ERES FIEL Y TU MISERICORDIA ETERNA//(en la 2a vuelta quedate en do)
GENTE DE TODA LENGUA Y NACION DE GENERACION A
GENERACION
TE ADORAMOS HOY ALELUYA ALELUYA TE ADORAMOS HOY ERES
SEÑOR
TE ADORAMOS HOY ALELUYA ALELUYA TE ADORAMOS HOY ERES
SEÑOR ERES FIEL
viene una parte donde puedes hacer el intro y el bajo sobre Dm
se repite otra vez
DDFFG
si señor....
DDCCB
tan fiel tan fiel
DDFFG
si señor si señor
DDCCBBbBbA
tan fiel....
final:
ERES SEÑOR.....................eres fieeel




[Eres fiel acordes][Eres fiel chords]
© LaCuerda.net · notícia legal · privacidade · es · en · pt · contato
DINAMICO