Cifras para Violão e Guitarra » C »Los Concorde » Rompecabezas (Tab)

Rompecabezas
Los Concorde

Letras, cifras e tablaturas para violão, guitarra, piano, ukulele e baixo

  • E ---------------------------------------------------------------
    B ---------------------------------------------------------------
    G ---------------------------------------------------------------
    D ---------------------------------------------------------------
    A -------------------------------0-0-0-0-0------0-0-0-0-0--------
    E -1-1-1-1-1-3h5--0-0-0-0-0-3h5------------3h5-------------3h5---
    
    Y todo lo que nunca fue
    y lo que no dejamos de ser
    tratamos de taparlo con un dedo
    
        F         Em        Am
    e --8---------7---------5-----------
    B --10--------8---------5-----------
    G --10--------9---------5-----------
    D --10--------9---------7-----------
    A --8---------7---------7-----------
    E --8---------7---------5-----------
    
    
    
  • E ---------------------------------------------------------------
    B ---------------------------------------------------------------
    G ---------------------------------------------------------------
    D ---------------------------------------------------------------
    A -------------------------------0-0-0-0-0------0-0-0-0-0--------
    E -1-1-1-1-1-3h5--0-0-0-0-0-3h5------------3h5-------------3h5---
    
    Y todo lo que nunca fue
    y lo que no dejamos de ser
    tratamos de taparlo con un dedo
    
    F5  E5  A5
    F5  E5  A5
    
    F5             E5
    Y todo lo que nunca fue
      A5
    y lo que no dejamos ser
    F5           E5             A5
    tratamos de taparlo con un dedo
    
  • F E A
    
    F              E
    Y todo lo que nunca fue
       A
    y lo que no dejamos ser
    F              E            A
    tratamos de taparlo con un dedo
    
    
    F                           E
    Y sin embargo vuelvo a empezar
                       A
    no tiene caso esperar
                                                   F
    nunca pense en consecuencias ya no vuelve a pasar,
                         E                            A
    ya no soporto los domingos son lo mismo son lo mismo,
    
    es una telenovela que no quiero mirar.
    
  • Que ondita banda rockanrolera
    
    les ando trayendo esta tab nada mas para que se den un quemon jajaja
    
    espero les agrade
    
    intro(aqui es con el bajo para que suene chido con la lira lo puse asi)
    e|---------------------------------------------------------------|
    B|---------------------------------------------------------------|
    G|---------------------------------------------------------------|
    D|-3-3-3-3-3-5h7---2-2-2-2-2-5h7-------------5h7-------------5h7-|
    A|---------------------------------0-0-0-0-0-------0-0-0-0-0-----|
    E|---------------------------------------------------------------|
    
    1er verso igual que el intro (Y todo lo que nunca fue....)^
    e|---------------------------------------------------------------|
    B|---------------------------------------------------------------|
    G|---------------------------------------------------------------|
    D|-3-3-3-3-3-5h7---2-2-2-2-2-5h7-------------5h7-------------5h7-|
    A|---------------------------------0-0-0-0-0-------0-0-0-0-0-----|
    E|--------
  • intro y riff principal
    G|---------------------------------------------------------------|
    D|-----------5h7-------------5h7------------5h7------------5h7---| x7
    A|-8-8-8-8-8-----7-7-7-7-7-7-------------------------------------|
    E|-------------------------------5-5-5-5-5-5----5-5-5-5-5-5------|
    
    G|-----------------------------------------------------|
    D|-----------------------------------------------------|
    A|-----------------------------------------------------|
    E|-1*-1*-1*-1-1-0*-0*-0*-0-0-5*-5*-5*-5/7-5*-5*-5*-5/1-|
    ( Los * indican apagar la nota después de tocarla )
    G|---------------------------------------------------|
    D|---------------------------------------------------|
    A|---------------------------------------------------|
    E|-1*-1*-1*-1-1-0*-0*-0*-0-0-5*-5*-5*-5/7-555555555--|
    
    Coro
    G|-------------------------------------------|
    D|-------------------------------------------|
    A|-------------------0--0h3-5/7--0-0h3-5/7---|
    E|-11111111133333333-------------------------|
    
    |--------
  • Ahi esta no es por presumir pero esta 100% correcta
    chequenla. Preguntas o aclaraciones mi correo es
    jacko_24horas@hotmail.com
    
    
    Rompecabezas - Los Concorde
    
    Intro (0:24)
                      |-------x3-------|                |-------x2-------|
    C|X---------------|----------------|X---------------|----------------|
    H|--o---o---o---o-|--o---o---o---o-|--o---o---o---o-|--o---o---o---o-|
    S|----o-------o---|----o-------o---|----o-------o—--|----o-------o---|
    B|o-------o-------|o-------o-------|o-------o-------|o-------o-------|
     |1 + 2 + 3 + 4 + |1 + 2 + 3 + 4 + |1 + 2 + 3 + 4 + |1 + 2 + 3 + 4 + |
    
                      |-------x6-------|
    H|--o---o---o---o-|--o---o---o---o-|--o---o---o---o-|--o---o---o---o-|
    S|----o---o---o---|----o-------o---|----o-------o—--|----o-------o-o-|
    B|o---------------|o-------o-------|o-------o-------|o-------o-------|
     |1 + 2 + 3 + 4 + |1 + 2 + 3 + 4 + |1 + 2 + 3 + 4 + |1 + 2 + 3 + 4 + |
    
    Pre-Coro (0:56)
    H|x-x-x-x-x-x-x-o-|x-x-x-x-x-x-x-xx|x-x-x-x-x-x-x-o-|x-x-x-x-x
  • +
    ¡Colabora con nosotros!
    Envíanos tu versión de esta canción
  • Tutorial
    HD
    Como tocar ROMPECABEZAS en guitarra - Los Concorde [Tutorial Somos Posers]
    7:25

Letra de Rompecabezas
Y todo lo que nunca fue
y lo que no dejamos de ser
tratamos de taparlo con un dedo
Y todo lo que nunca fue
y lo que no dejamos ser
tratamos de taparlo con un dedo
Y sin embargo vuelvo a empezar
no tiene caso esperar
nunca pensé en consecuencias
ya no vuelve a pasar
ya no soporto los domingos
son lo mismo, son lo mismo
es una telenovela que no quiero mirar
Ay control de mujer
y lo encubre tu piel
eres criminal y delatora a la vez
tratamos de taparlo con un dedo
Y sigue todo igual sigue lento
sigue frió sigue sin parecer
tener algo divino
es un rompecabezas de miles de piezas
que ya no quiero armar
ya no pretendo armar
Y cuando pude estar seguro
De que seria yo ninguno
volaste como arena con el viento
trataste de taparlo con un dedo
OOOHHH
Ay control de mujer
y lo encubre tu piel
eres criminal y delatora a la vez
tratamos de taparlo con un dedo
OOOOHH
El complot de tu piel
y tu forma de ser
cometen ese crimen que se llama mujer
y siempre lo tapamos con un dedo.
uuhh
Hay complot de tu piel
y tu forma de ser
cometen ese crimen que se llama mujer
y siempre lo tapamos con un dedo.
OOOHH
Ultimo Verso Leonardo y Jonas cantan juntos:
Ay control de mujer
y lo sabe tu piel
eres criminal y delatora a la vez
tratamos de taparlo con un dedo
(Y sin embargo vuelvo a empezar
no tiene caso esperar
nunca pensé en consecuencias
ya no vuelve a pasar
ya no soporto los domingos
son lo mismo, son lo mismo
es una telenovela.)
Termina con el intro
y al final:
Eso es todo.
Saludos al rock Poblano.
dpunko@msn.com




[Rompecabezas acordes][Rompecabezas chords]
© LaCuerda.net · notícia legal · privacidade · es · en · pt · contato
DINAMICO