Cifras para Violão e Guitarra » C »Coti » 50 Horas (Tab)

50 Horas
Coti

Letras, cifras e tablaturas para violão, guitarra, piano, ukulele e baixo

  • E A B G#m C#m - A B E Esus E
    
    Intro
    e-----------------------------------------------------------------------
    B-----------------------------------------------------------------------
    G-----------------------------------------------------------------------
    D-------2--4/6--4---2--4/6-4-----------2-4/6--4----2-4/6---2-4/6--4--2--
    A--2-4---------------------------2-4------------------------------------
    E-----------------------------------------------------------------------
    
    E-----------------------------------------------------------------------
    B-----------------------------------------------------------------------
    G------------------------------1-4--------------------------------------
    D--------2--4/6--4----------2-------4-2---------------------------------
    A---2-4----------------2-4----------------------------------------------
    E-----------------------------------------------------------------------
    
    E                                G#m7
    Se cayeron mis creencias por el suelo
                   C#m7
    
  • e|-------------------------------|------------------------------------|
    B|-------------------------------|------------------------------------|
    G|-------------------------------|------------------------------------|
    D|-------2--4/6--4----2--4/6--4--|--------2--4/6--4----2--4/6--4--2---|
    A|--2--4-------------------------|--2--4------------------------------|
    E|-------------------------------|------------------------------------|
    
    e|--------------------------------------------------------------------|
    B|--------------------------------------------------------------------|
    G|---------------------------------1--4--1----------------------------|
    D|-------2--4/6--4--------------2----------4--2--2--------------------|
    A|--2--4-------------------2-4----------------------------------------|
    E|--------------------------------------------------------------------|
    
    E                               G#m7
    Se cayeron mis creencias por el suelo
                   C#m7
    Como papeles pisados
          F#m7                      D
    El francés me suena como el arameo
    
  • +
    ¡Colabora con nosotros!
    Envíanos tu versión de esta canción
  • Tutorial
    HD
    (Como Tocar)
    Tutorial Guitarra 50 Horas - Coti Guitarra Acustica
    8:23

Letra de 50 Horas
Se cayeron mis creencias por el suelo
Como papeles pisados
El francés me suena como el Arameo
Y parís desencajado
El futuro es una caja de promesa
Y la promesa ya es de humo
Yo te escucho no tengo nada mejor
Que hacer después del desayuno
No puede ser, que estés, tan sola
No puede ser que estés tan sola
Con lo buena que estas, yo podría estar 50 horas
Robándote besos, de esos que vos me dejas robar
Están lindo el sol nos da la bienvenida
Y los gorriones en silencio
Se devoran lo que se nos cae al suelo
Las penas y lo desvelos
El papel es un cuchillo y tu mirada
La propina de la noche
Si las cuerdas se te oxidan con el tiempo
La madera se hace noble
No puede ser, que estés, tan sola
No puede ser que estés tan sola
Con lo buena que estas, yo podría estar 50 horas
Robándote besos, de esos que vos me dejas robar
No puede ser, que estés, tan sola
No puede ser que estés tan sola
Con lo buena que estas, yo podría estar 50 horas
Robándote besos, de esos que vos me dejas robar




[50 Horas acordes][50 Horas chords]
© LaCuerda.net · notícia legal · privacidade · es · en · pt · contato
DINAMICO