Cifras para Violão e Guitarra » C »Cristian Castro » No podrás (Tab)

No podrás
Cristian Castro

Letras, cifras e tablaturas para violão, guitarra, piano, ukulele e baixo

  • Gm Cm F  Bb Eb   Cm X2
    
    
    
    Gm           Cm         F             Bb         Eb       Cm
      Tal vez te olvides de mi, tal vez me olvide de ti   (oh no)
    Gm           Cm      F             Bb     Eb          Cm
      pero esta vez aprendi, que no se debe mentir     [noO]
    Gm          Cm      F            Bb    Eb
      de una promesa vivi hoy ya no puedo seguir....
     Cm         Bb            Eb
    Creyendo en ti.... Uhhhhhh........
    
    
    
    
    Bb       Eb
      cada momento
    F           Bb       Am Gm            Cm           F
      voy tropezando en desamor esque no queda nada entre tu y yo
    
  • Intro     F#m  Bm  E  A  D  Bm   (2)
    
    F#m           Bm       E
    Tal vez te olvides de mí,
                  A       D
    tal vez me olvide de ti,
        Bm
    oh no.
    
    Pero esta vez aprendí,
    que no se debe mentir,
    no oh!
    
    De una promesa viví,
    hoy ya no puedo seguir,
         Bm       A   D   Dm   A  E
    creyendo, en ti.
    
    PRE
    A         D  E
    
  • Intro: Gm    Cm    F   Bb    Eb          Cm  * 2  (dos vueltas)
    
    
    Gm           Cm         F             Bb         Eb       Cm
      Tal vez te olvides de mi, tal vez me olvide de ti   (oh no)
    Gm           Cm      F             Bb     Eb          Cm
      pero esta vez aprendi, que no se debe mentir     [noO]
    Gm          Cm      F            Bb    Eb          Cm        Bb                    Eb 
      de una promesa vivi hoy ya no puedo seguir.... creyendo en ti...Uuuuuuuuuuuuuuuuh 
    Bb                               Am  Gm           Cm            F
      cada momento voy tropezando en desamor esque no queda nada entre tu y yo 
    *
    Bb                                          Am  Gm             Cm         F
      si estoy llorando no es que te extrañe el corazon esque a tu lado aprendi el dolor
           Eb                  Dm          Gm     F   Eb              Dm          Gm       Dm
      no podras olvidar que te ame como yo nunca imagine estare en tu piel cada momento en donde 
       Eb                       Dm          Gm      F     Eb     F    Bb
      estes, siempre habra un lugar algun recuerdo que sera un eterno suspirar..............
    
                                           REQUINTO
    
  • MIm LAm RE   SOL   DO    LAm (X3)
    
    
    MIm         LAm        RE            SOL        DO       LAm
    Tal vez te olvides de mi, tal vez me olvide de ti   (oh no)
    MIm         LAm     RE            SOL    DO          LAm
    pero esta vez aprendi, que no se debe mentir     [noO]
    MIm        LAm     RE           SOL   DO     LAm       SOL  DO   DOm   SOL
    de una promesa vivi hoy ya no puedo seguir creyendo en ti...Uuuuuuuuuuuuuuuh
    
        SOL    DO    RE       SOL       RE MIm
     ...cada momento voy tropezando en desamor
                 LAm          RE            SOL RE LA# DO
    y es que no queda nada entre tu y yo
    SOL         DO    RE             SOL       RE MIm
    si estoy llorando no es que te extrañe el corazon
               LAm           RE       SOL RE
    es que a tu lado aprendi el dolor
    
         DO       RE         SIm         MIm    RE  DO
    
  • e|-----------------------------------------------------------------|
    B|------------------------------------------3----------------------|
    G|------7---8-7---------5---7-5---------3------3-----------3-------|
    D|----8---8-----5-7---7---7-----3-5---5---5-----5------5-------5^3-|
    A|-10--------------------------------------------3---3---3---3-----|
    E|-----------------------------------------------------------------|
    
    
    G5            C5       F5
    Tal vez te olvides de mí
                 Bb5     Riff1
    Tal vez me olvide de ti
    
    Este es el Riff1
    |------------------------------|
    |-------3----------------------|
    |---3------3-----------3---3/5-|
    |-5---5-----5------5-----------|
    |------------3---3---3---3-----|
    |------------------------------|
    
  • --------------------------------------------------------------------
    -----------------------------------------3--------------------------
    ------7---8-7---------5---7-5--------3-----3-------------3---5b6r5p3-
    ----8---8-----5-7---7---7-----3-5--5---5-----5-------5---------------
    -10--------------------------------------------3---3---3---3---------
    ---------------------------------------------------------------------
    
    
    -----------------------------------------------------------------------
    -----------------------------------------3----------------------------
    ------7---8-7---------5---7-5--------3-----3------------3--5b6r5p3----
    ----8---8-----5-7---7---7-----3-5--5---5-----5------5--------------3/-
    -10--------------------------------------------3--3---3---------------
    -----------------------------------------------------------------------
    
    
    G5            C5       F5
    Tal vez te olvides de mí
                 Bb5     Riff1
    Tal vez me olvide de ti
    
  • +
    ¡Colabora con nosotros!
    Envíanos tu versión de esta canción
  • Tutorial
    HD
    No Podrás - Cristian Castro: SOLO GUITARRA TAB #18
    0:45

Letra de No podrás
Tal vez te olvides de mi, tal vez me olvide de ti (oh no)
pero esta vez aprendi, que no se debe mentir [noO]
de una promesa vivi hoy ya no puedo seguir....
Creyendo en ti.... Uhhhhhh........
cada momento
voy tropezando en desamor esque no queda nada entre tu y yo
si estoy llorando
no es que te extrañe el corazon esque a tu lado aprendi el dolor
No podras olvidar que te ame como yo nunca imagine
Estare en tu piel cada momento en donde estes,
siempre habra un lugar algun recuerdo que sera un eterno suspirar




[No podrás acordes][No podrás chords]
© LaCuerda.net · notícia legal · privacidade · es · en · pt · contato
DINAMICO