Cifras para Violão e Guitarra » D »Daniel Toro » Zamba Para Olvidar (Tab)

Zamba Para Olvidar
Daniel Toro

Letras, cifras e tablaturas para violão, guitarra, piano, ukulele e baixo

  •    MIm     RE      MIm
    No se para que volviste
    MIm       RE         MIm
    si yo empezaba a olvidar
    DO                 SIm
     No se si ya lo sabrás
       DO               SI7
    llore cuando vos te fuiste
       DO             SIm
    No se para que volviste,
        MIm         RE   MIm
    que mal me hace recordar
    
        MIm         RE     MIm
    La tarde se  ha puesto triste
    MIm      RE       MIm
    y  yo prefiero callar
    DO                  SIm
    Para que vamos a hablar
       DO               SI7
    
  • Am - F - E7 - Am
    E--12--12--12--12--12----10--9--10--8--7--8--5--7--8--7--5--4--0------
    B----------------------------------------------------------------3--1-
    G--12--12--12--12--12----10--9--10--9--7--9--5--7--9--7--5--4--0------
    D----------------------------------------------------------------3--2-
    
    
    Am - F - E7 - Am   (E7-Am)X2
    E--12--12--12--12--12----10--9--10--8--7--8--5--7--8--7--5--4--5--7--4--5-
    B-------------------------------------------------------------------------
    G--12--12--12--12--12----10--9--10--9--7--9--5--7--9--7--5--4--5--7--4--5-
    D-------------------------------------------------------------------------
                                              
                                                       -I-
         Am       G    Am
    No se para que volviste 
    Am        G             Am 
     si yo empezaba a olvidar
    F                   E         F                 E
         No se si ya lo sabras llore cuando vos te fuiste
    
  •          Q     E   E   E   E      Q.      E   Q        Q.      E  Q
    E||---|-------12--12--12--12--|--12------10---9----|--10-------8--7----|
    B||---|-------13--13--13--13--|--13------12--11----|--12------10--8----|
    G||---|-----------------------|--------------------|-------------------|
    D||---|-----------------------|--------------------|-------------------|
    A||---|-----------------------|--------------------|-------------------|
    E||---|-----------------------|--------------------|-------------------|
    
       Q.   E  Q        Q.     E  Q       Q.     E  Q       H        Q
    ---8----5--7----|---8------7--5----|--3------0--5----|--0-------------|
    --10----6--8----|--10------8--6----|--5------1--6----|--1--------3----|
    ----------------|------------------|-----------------|-----------4----|
    ----------------|------------------|-----------------|----------------|
    ----------------|------------------|-----------------|----------------|
    ----------------|------------------|-----------------|----------------|
    
    
      H.            Q     E   E   E   E      Q.      E   Q
    -------------|-------12--12--12--12--|--12------10---9----|
    --1----------|-------13--13--13--13--|--13------12--11----|
    
  • +
    ¡Colabora con nosotros!
    Envíanos tu versión de esta canción

Letra de Zamba Para Olvidar
-I-
No se para que volviste
si yo empezaba a olvidar
No se si ya lo sabras llore cuando vos te fuiste
No se para que volviste, que mal me hace recordar
-II-
La tarde se apuesto triste
y yo prefiero callar
Para que vamos a hablar de cosas que ya no existen
No se para que volviste ya ves que es mejor no hablar
Estribillo
Que pena me da saber que al final
De ese amor ya no queda nada
Y hace rato que te extraña
mi zamba para olvidar
(repite acordes de-I- en -III- y -IV-)
-III-
Mi zamba vivio conmigo, parte de mi soledad
No se si ya lo sabras mi vida se fue contigo
Contigo mi amor contigo
Que mal me hace recordar
-IV-
Mis manos ya son de barro, tanto apretar al dolor
Y ahora que me falta el sol, no se que venis buscando
Llorando mi amor llorando
Tambien olvidame vos
(Estribillo)




[Zamba Para Olvidar acordes][Zamba Para Olvidar chords]
© LaCuerda.net · notícia legal · privacidade · es · en · pt · contato
DINAMICO