Cifras para Violão e Guitarra » D »Danilo Montero » Alabad a Jehová (Tab)

Alabad a Jehová
Danilo Montero

Letras, cifras e tablaturas para violão, guitarra, piano, ukulele e baixo

  •     C           G   
    //Alabad a Jehová
       F               G
    habitantes de la tierra,
        C       G
    Alabad al Señor
             F         G 
    los que temen a su nombre//
    
    E                        Am7  
    Alabadle porque hizo maravillas en el mar,
    E                             Am7 
    alabadle porque quiso engrandecer a su pueblo,
    E                      F  G
    alabadle, alabadle, alabadle
    
    E                         Am7
    Alabadle porque quiso revelarnos a su hijo,
    E                                 Am7   
    alabadle porque en Cristo nos dio vida eterna,
    
  • Intro: //C - G - F(add9) - G, C - G - F(add9) - Am7 - G //
    
    
           C        G       F           Gsus4 - G
       Alabad a Jehová habitantes de la tie- rra
        C        G           F         Am7 - G
    Alabad aL Señor los que temen a su nom - bre
        C        G       F           Gsus4 - G
    Alabad a Jehová habitantes de la tie- rra
        C       G            F         Am7 - G
    Alabad al Señor los que temen a su nom - bre
       Esus4 - E               G/A -  Am
    Alabadle   porque hizo maravillas en el mar
       Esus4 - E                    G/A - Am
    Alabadle   porque quizo engrandecer   a su pueblo
       E                   F  -  G
    Alabadle, alabadle, alabad - le.
    
    (SUBE UN TONO)
    
    
  • Bien este es el intermedio para entrar a pueblos todos.
    Espero les sirva de algo.
    
    Guitarra:
    
    E---------------------------------------------------
    B---------------------------------------------------
    G-------2-2-----2b---x-6/4-x-4/2--------------------
    D---2h4-----4h2----4-x-7/4-x-4/2--------------------
    A---------------------------------------------------
    E---------------------------------------------------
    
    Y la de bajo es más o menos así:
    
    G-------2-4-2h4p4-----------------------------------
    D---2h4-----------4-2-----2-4p2---------------------
    A---------------------2h4-------4p2-2-0-------------
    E---------------------------------------------------
  • Hola! esta alabanza me gusta mucho porque nos habla acerca de que tenemos que alabar
    a Jehova por todo lo que nos ha dado, bueno aqui esta:
    
    Intro:
    B------------------------------------------------|----------------------------------------|
    E--------------------3----3--3--4--5--6--7--8--9-|--------------3------3--3--4--5--6--4---|
    A-15s3--3--3--4--5-------------------------------|-3--3--4--5-----------------------------|
    D-----------------------5------------------------|------------------5---------------------|
    G------------------------------------------------|----------------------------------------|
    2 veces
    
    Coro:
    B-------------------------------------------------|--------------------------------------|
    E-----------------3------3--3--4--5--6--7--8--9---|-------------3------3--3--4--5--7--5--|
    A-3--3--3--4--5-----------------------------------|-3--3--4--5---------------------------|
    D--------------------5----------------------------|-----------------5--------------------
  • +
    ¡Colabora con nosotros!
    Envíanos tu versión de esta canción

Letra de Alabad a Jehová
//Alabad a Jehová
habitantes de la tierra,
Alabad al Señor
los que temen a su nombre//
Alabadle porque hizo maravillas en el mar,
alabadle porque quiso engrandecer a su pueblo,
alabadle, alabadle, alabadle
Alabadle porque quiso revelarnos a su hijo,
alabadle porque en Cristo nos dio vida eterna,
alabadle, alabadle, alabadle




[Alabad a Jehová acordes][Alabad a Jehová chords]
© LaCuerda.net · notícia legal · privacidade · es · en · pt · contato
DINAMICO