Tab Baixo de Divididos: Amor japonés
Jorge Araujo, Diego Arnedo, Ricardo Mollo
Gol de Mujer
Hasta ahora todas las tablaturas de esta cancion
que estuve viendo no me convencieron
Asi que aca va una hecha por mi.


Intro(x2)

G|------------------------------------------|
D|------------------------------------------|
A|-/11--------/9--------/7-------4/6--------|
E|------------------------------------------|



Verso (x2)

G|------------------------------------------------|
D|--/18---18-17-18---18-17-18---18-17-18-17-18----|
A|------------------------------------------------|
E|------------------------------------------------|

|-------------------------------------------------|
|--16---16-15-16---16-15-16---16-15-16-15-16------|
|-------------------------------------------------|
|-------------------------------------------------|

|-------------------------------------------------|
|--14---14-13-14---14-13-14---14-13-14-13-14------|
|-------------------------------------------------|
|-------------------------------------------------|

|-------------------------------------------------|
|--13---13-12-13---13-12-13---13-12-13-12-13/-----|
|-------------------------------------------------|
|-------------------------------------------------|
 
La segunda vez que repite esta frase en vez de deslizarse
hasta el traste 18 de nuevo, va hacia arriba para pasar
al estribillo.



ESTRIBILLO

(las notas que tienen ~ al costado son notas
que hay que alternar con el traste siguiente
muy rapido para hacer el sonido que hace
Dieguito en la cancion)

G|---------------------5-5----7-5~-------------------5-5----5-5---|
D|--------------5h7---------7------------------5h7--------7-----7-|
A|----------5h7----------------------------5h7--------------------|
E|-5-5-5----------------------------5-5-5-------------------------|


|---------------------3-3----5-3~-------------------3h4-3---------------------|
|--------------3h5---------5------------------3h5---------5-4-3---------------| (hace algo
|----------3h5----------------------------3h5-------------------5-4-3-2-------|     asi)
|-3-3-3----------------------------3-3-3--------------------------------5-4-3-|


|---------------------2-2----4-2~-------------------2-2----2-2----|
|--------------2h4---------4------------------2h4-------4------4--|
|----------2h4----------------------------2h4---------------------|
|-2-2-2----------------------------2-2-2--------------------------|



Puente

G|------------------------------------------|
D|----7----------6--5--------10/------------|
A|------------------------------------------|
E|-/5---------------------------------------|



Verso
(repite lo mismo que el verso anterior)


Estribillo y puente
(repite lo mismo que antes)


Solo de guitarra
(aca el bajo hace lo mismo que en los versos)



Estribillo
(repite casi lo mismo, solo cambia una parte)

G|---------------------5-5----7-5~-------------------5-5----5-5---|
D|--------------5h7---------7------------------5h7--------7-----7-|
A|----------5h7----------------------------5h7--------------------|
E|-5-5-5----------------------------5-5-5-------------------------|


|---------------------3-3----5-3~-------------------3h4-3---3----15~---|
|--------------3h5---------5------------------3h5---------5------------|
|----------3h5----------------------------3h5--------------------------|
|-3-3-3----------------------------3-3-3-------------------------------|


|---------------------2-2----4-2~-------------------2-2----2-2----|
|--------------2h4---------4------------------2h4-------4------4--|
|----------2h4----------------------------2h4---------------------|
|-2-2-2----------------------------2-2-2--------------------------|



Puente

G|------------------------------------------|
D|----7----------6--5--------10-------------|
A|------------------------------------------|
E|-/5---------------------------------------|



Final
(repite la intro pero solo 1 vez
y un poco mas lento que antes)

G|------------------------------------------|
D|------------------------------------------|
A|-/11--------/9--------/7---------6--------|
E|------------------------------------------|



Es un tema relativamente facil en comparacion a otros
temas de divididos, escuchen la cancion pasa saber bien el ritmo.
Cualquier comentario o duda manden un mail a jovenpordiosero@hotmail.com
Suerte!
Este arquivo é o trabalho do seu trnascritor e representa sua interpretação pessoal da música. O material contido nesta página é para uso privado exclusivo, portanto, é proibida sua reprodução ou retransmissão, bem como seu uso para fins comerciais.
© LaCuerda.net · notícia legal · privacidade · es · en · pt · contato