Cifras para Violão e Guitarra » D »Divididos » Amor japonés (Tab)

Amor japonés
Divididos

Letras, cifras e tablaturas para violão, guitarra, piano, ukulele e baixo

  • E|---------7--7-h-9-h--7----------5--5-h-7-h-5----------3--3-h-5-h-3----------|
    B|----s-9-----------------9---s-7---------------7--s-5---------------5-4------|
    G|----------------------------------------------------------------------------|
    D|----------------------------------------------------------------------------|
    A|----------------------------------------------------------------------------|
    E|----------------------------------------------------------------------------|
    
    
    
     E/7          D/7
    Amor japonés, quilombo y estrés
     C/9              B/7
    Próstata y bronceador
     E/7            D/7
    Cagador social, fuma en el avión
     C/9             B/7
    Hay boicot de yarará
     A/7
    Negro bailarín, no sabe combinar
     G/7
    
  • Amor Japones, por Divididos
    Escuchar bien el tema antes que nada.
    Cualquier duda, error o lo que sea, escribir
    a ariel_sandin@hotmail.com
    
    INTRO
    G|--7/9*----5/7*----3/5*----5-7-8*--|
    D|----------------------------------|
    A|----------------------------------|
    E|----------------------------------|
      2 veces
    
    VERSO: x2
    G|--21--21-20-21--21-20-21--21-20-21-20-21-|
    D|-----------------------------------------|
    A|-----------------------------------------|
    E|-----------------------------------------|
    
    G|--19--19-18-19--19-18-19--19-18-19-18-19-|
    D|-----------------------------------------|
    A|-----------------------------------------|
    E|-----------------------------------------|
    
    G|--17--17-16-17--17-16-17--17-16-17-16-17-|
    D|-----------------------------------------|
    A|-----------------------------------------|
    E|-----------------------------------------|
    
    G|--16--16-15-16--16-15-16--16-15-16-15-16/|
    D|-----------------------------------------|
    A|-----------------
  • Hasta ahora todas las tablaturas de esta cancion
    que estuve viendo no me convencieron
    Asi que aca va una hecha por mi.
    
    
    Intro(x2)
    
    G|------------------------------------------|
    D|------------------------------------------|
    A|-/11--------/9--------/7-------4/6--------|
    E|------------------------------------------|
    
    
    
    Verso (x2)
    
    G|------------------------------------------------|
    D|--/18---18-17-18---18-17-18---18-17-18-17-18----|
    A|------------------------------------------------|
    E|------------------------------------------------|
    
    |-------------------------------------------------|
    |--16---16-15-16---16-15-16---16-15-16-15-16------|
    |-------------------------------------------------|
    |-------------------------------------------------|
    
    |-------------------------------------------------|
    |--14---14-13-14---14-13-14---14-13-14-13-14------|
    |-------------------------------------------------|
    |-------------------------------------------------|
    
    |----------
  • C: crash 
    S: splash
    H: hi-hat (X: abierto, x: medio cerrado)
    t: tacho
    T1: tom 1
    T2: tom 2
    Ch: chancha
    B: bombo 
    
    
    INTRO
    C |--x--x--x--x---|
    H |---------------|
    T |---------------|
    T1|---------------|X2
    T2|---------------|
    Ch|---------------|
    B |--o--o--o--o---|
    
    C |-----------X-|
    S |-------------|
    H |-------------|
    R |-------------|
    T |----o--------|
    T1|--o----------|
    T2|------o------|
    Ch|--------o----|
    B |-----------o-|
    
    amor japones...
    C |-------------------------------------------|
    S |-------------------------------------------|
    H |-x-x--xxX--x-x--xxX--x-x--xxX--x-xxx--x-X--|
    R |-------------------------------------------|
    T |------o---------o---------o-----------o----|
    T1|-------------------------------------------|
    T2|-------------------------------------------|
    Ch|-------------------------------------------|
    B |-o---------o---------o---------o----o------|
    
    prostata y bronceador.....
    C |-------------------------------------------X--|
    S |--
  • +
    ¡Colabora con nosotros!
    Envíanos tu versión de esta canción

Letra de Amor japonés
Amor japonés, quilombo y estrés
Próstata y bronceador
Cagador social, fuma en el avión
Hay boicot de yarará
Negro bailarín, no sabe combinar
Como Siman en Cancun
Bostezando te acordaste de esa mina de Carhue
Por clavo de olor, confusión anal
El jabón Virginia está
Se parió de sí, se comió los pies
Y se fue por la nariz
Negro bailarín, no sabe combinar
Oxidándose en Hawaii
Bostezando te acordaste de esa mina de Carhue
Negro bailarín, no sabe combinar
Como cuesta ser feliz
Bostezando te acordaste de esa mina de Carhue




[Amor japonés acordes][Amor japonés chords]
© LaCuerda.net · notícia legal · privacidade · es · en · pt · contato
DINAMICO