Cifras para Violão e Guitarra » D »Divididos » Soy quien no ha de morir (Tab)

Soy quien no ha de morir
Divididos

Letras, cifras e tablaturas para violão, guitarra, piano, ukulele e baixo

  • e|----5------------------------------------------------
    B|-5v---8^---5-------5v---5----------------------------
    G|-------------7-5/7--------7-5^-7v------------------2-
    D|-----------------------------------5/2------2-5b-----
    A|----------------------------------------3-5----------
    E|-----------------------------------------------------
    
    Am                    C     
    Soy quien no ha de morir  oh no
           (*D Dsus4 D Dsus2 D)               * en esta parte toca las 3 
    siempre regresare,                          primeras cuerdas como 
          F    E                                haciedo un 'jueguito' 
    me veraaaaas                                mientras pasas los acordes.
    
    (La progresion de los acordes es la misma)
    En las calles de tus pensamientos
    en cualquier lugar,
    me veras 
    
    SOLO1 
    
  • Am   C    D  D4-D-D2  D    F    E
    (Creo que con D hace un juego rapido) 
    
    Am                    C     
    Soy quien no ha de morir  oh no
                    D  D4-D-D2  D
    siempre regresare, 
          F    E 
    me veraaaaas
    
    En las calles de tus pensamientos
    en cualquier lugar,
    me veras 
    
    Am   C    D  D4-D-D2  D    F    E
    
    Arbol de sombra joven
    sere el remanso fiel,
    que tendras
    
    
  •   Am            C
    G|-------------|-------------------|
    D|-------------|---------2-5-5-7-5-|
    A|-----3-3-7-7-|-3-5-3-3-----------|
    E|-5-5---------|-------------------|
      
      D              F     G
    G|--------------|-----|-----|
    D|---5-7--------|-----|-----|
    A|-5------------|-----|-----|
    E|--------5-7-5-|--1--|--3--|
    
    Siempre recomiendo escuchar el tema antes de
    tocarlo.
  • +
    ¡Colabora con nosotros!
    Envíanos tu versión de esta canción

Letra de Soy quien no ha de morir
Soy quien no ha de morir oh no
siempre regresare, primeras cuerdas como
me veraaaaas mientras pasas los acordes.
(La progresion de los acordes es la misma)
En las calles de tus pensamientos
en cualquier lugar,
me veras
SOLO1
Arbol de sombra joven
sere el remanso fiel,
que tendras
Con todo su esplendor detras
de algun presagio gris,
dejaras
Soy el sonido de tus pasos
la claridad de tu,
despertar
Soy quien no ha de morir jamas
siempre regresare,
me veras
LOS SOLOS LOS ESTOY PREPARANDO.....CUANDO LOS SAQUE LOS SUBO!
AGUANTE LA APLANADORA DEL ROCK!!!!!!!




[Soy quien no ha de morir acordes][Soy quien no ha de morir chords]
© LaCuerda.net · notícia legal · privacidade · es · en · pt · contato
DINAMICO