Cifras para Violão e Guitarra » D »DLD » Viernes (Tab)

Viernes
DLD

Letras, cifras e tablaturas para violão, guitarra, piano, ukulele e baixo

  • INTRO: Bm - D - Bm - D
    
    ||-----10-10-10--||--------------10-10-10-10--||
    ||--10-----------||--10-10-10-10--------------||
    ||---------------||.-------------------------.||
    ||---------------||.-------------------------.||
    ||---------------||---------------------------||
    ||---------------||---------------------------||
    
    
    |--------------10-10-10-10--|--------------13-13-13-13-(13)-(13)-(13)--||
    |--12-12-12-12--------------|--12-12-12-12-----------------------------||
    |---------------------------|-----------------------------------------.||
    |---------------------------|-----------------------------------------.||
    |---------------------------|------------------------------------------||
    |---------------------------|------------------------------------------||
    
    
    
    VERSO
    
  • e|--x-x----------------------
    b|--x-x--4-4---x-x-7-7-------
    g|--x-x--4-4---x-x-7-7-------
    d|--x-x--2-2---x-x-5-5-------
    
    Se sigue tocando la introduccion con la figura 1
    
    fig.1 4x
    
    e|------10-10-10-------------10-10-10---------10-10-10-10----------13-13-13-13-
    b|--10----------10--10-10-10---------12-12-12-------------12-12-12-------------
    g|-----------------------------------------------------------------------------
    d|-----------------------------------------------------------------------------
    
    figura 1.2
    
    e|-----10-10-10-------------10-10-10---------10-10-10-10----------
    b|-10----------10--10-10-10---------12-12-12-------------12-12-12-
    g|----------------------------------------------------------------
    d|----------------------------------------------------------------
    
  • Afinación: E estándar                           Simbología: / = Slide
                                                                ~ = Vibrator
    
    
    Intro
    G|------------------------------|
    D|------4-----------------------|
    A|--5/2---5--5/4----7------5-4--|
    E|----------------5---3--3------|
    
    
    G|----------------------------||
    D|----4-----------------------||
    A|--2---5--5/4----7------5-4--||
    E|--------------5---3--3------||
                                x3
    
    
    Verso 1
    G|----------------------------||
    D|----4-----------------------||
    A|--2---5--5/4----7------5-4--||
    E|--------------5---3--3------||
                                x4
    
    
    Puente 1
    G|----------------------------||
    D|----4-----------------------||
    A|--2---5--5/4----7------5-4--||
    E|--------------5---3--3------||
                                x2
    
    
    Verso 2
    G|----------------------------||
    D|----4-----------------------||
    A|--2---5--5/4----7------5-4--||
    E|--------------5---3--3------||
                                x4
    
    
    Coro
    G|----------------
  • +
    ¡Colabora con nosotros!
    Envíanos tu versión de esta canción
  • Tutorial
    HD
    Como Tocar Viernes - DLD [Tutorial Guitarra]
    5:03

Letra de Viernes
Se sigue tocando la introduccion con la figura 1
fig.1 4x
figura 1.2
Amor enfermo, la sangre hierve otra vez .
cuando tu me dices que no.
Amor bizarro, la piel se vuelve a erizar.
Cuando tu me dices que no.
2da guitarra Bm D
fig.1
fig.1.2
Y los días se vuelven semanas y luego meses.
Cuando tu me dices que lo vas a pensar.
Que algún día lo entenderás.
ya no habrá nada que explicar.
Cuando tu me digas Adiós.
Esta figura va de fondo en el coro repetidas veces
déjame hacerlo otra vez,
sabes que ya no estaré .
Esta fue la ultima vez
que tu me dijiste que no.
2da guitarra Bm D
fig.1
fig.1.2
Amor Enfermo, La sangre hierve otra vez.
Cuando tu me dices que no.
Y los días se vuelven semanas y luego meses,
Esta figura va de fondo en el coro repetidas veces
Cuando tu me dices que lo vas a pensar.
Que algún día lo entenderás.
No tendrás nada que explicar.
Cuando tu me digas Adiós.
déjame hacerlo otra vez,
sabes que ya no estaré.
Esta fue la ultima vez
que tu me dijiste que no...
Se tocan acordes y la figura pegajosa peculiar en DLD
2da guitarra Bm D
fig.1
fig.1.2
déjame hacerlo otra vez,
sabes que ya no estaré.
Esta fue la ultima vez
que tu me dijiste que no...
Espero les guste mi version :D




[Viernes acordes][Viernes chords]
© LaCuerda.net · notícia legal · privacidade · es · en · pt · contato
DINAMICO