Cifras para Violão e Guitarra » E »Edgar Oceransky » Kilometros de cielo (Tab)

Kilometros de cielo
Edgar Oceransky

Letras, cifras e tablaturas para violão, guitarra, piano, ukulele e baixo

  • intro: D5  D/C#  *Bm  A Asus4  G  D/F#  Em  A
    
    D5              D/C#       *Bm7   A
    Como llegar al filo de tu cama
    G                  G/G#         A
    para cantarte un cuento una canción,
       G              G/G#              D   F#°  
    para abrazarte fuerte hasta que caigas
        G               A          D   A   Asus4
    rendida entre mis brazos y mi voz.
    
    
    Y despertarte a besos en la cara,
    dos horas antes de que salga el sol,
    despues de haberte calentado el agua
    beberla a sorbos de mi corazón.
    
    Coro: 
    D              D/C#         *Bm7        A
    Voy a volar kilómetros de cielo, mi cielo,
    
  • F         C/Em       Dm      C
    Como llegar al filo de tu cama
    Bb                  Bb/Am          C
    Para contarte un cuento, una canción
    Bb               Bb/Am              F    C
    Para abrazarte fuerte hasta que caigas
    Bb                 C             F
    Rendida entre mis brazos y mi voz
    
     F         C/Em       Dm     C
    Y despertarte a besos en la cara
    Bb                     Bb/Am      C
    Dos horas antes de que salga el sol
    Bb                  Bb/Am          F   C
    Después de haberte calentado el agua
    Bb                  C         F
    Beberla a sorbos de mi corazón.
    
    F          C/Em           Dm     C
    Voy a volar kilómetros de cielo, mi cielo
    
  • G5add9    320035
    G5add9/F# 200035
    G5add9/E  022035
    A         002220
    
    Versos:
    D         X00232
    Asus4add5 540055
    Gadd5     320033
    A         002220
    E7/G#     420100
    A7/A#     012020
    D7aum2    X01212
    A7        002020
    
    Coro:
    D         X00232
    Asus4add5 540055
    Bm7       224232
    Gadd5     320033
    
  • |-------5---------|-------5---------|-------5---------|-----------0------|
    |-----3-----3---3-|-----3-----3---3-|-----3-----3---3-|-----3-2h3---3----|
    |---0----(0)--0---|---0----(0)--0---|---0----(0)--0---|---2----------(2)-|
    |-----------------|-----------------|-----------------|------------------|
    |-----------------|-----------------|-----------------|-0----------------|
    |-3---------------|-2---------------|-0---------------|------------------|
    
     como llegar al    filo de tu        cama…
    |-----------5-----|-------5---------|-----------5-----|-----------5------|
    |-------3-----3---|-----3-----3---3-|-------3-----3---|-------3-----3----|
    |-----0--(0)----0-|---0----(0)--0---|-----0--(0)----0-|-----0--(0)----0--|
    |---4-------------|-----------------|---4-------------|---4--------------|
    |-5---------------|-4---------------|-2---------------|-0----------------|
    |-----------------|-----------------|-----------------|------------------|
    
     para cantarte un  cuento una     canción…
    |-----------0-----|-----------0-----|-----------0-----|-----------0------|
    |-------3-----3---|-------3-----3---|-------3-----3---|-----3-2h3---3----|
    |-----0--(0)----0-|-----0--(0)----0-|-----0--(0)----0-|---2----------(2)-|
    |---4-------------|---4-------------|---4-------------|------------------|
    
  • +
    ¡Colabora con nosotros!
    Envíanos tu versión de esta canción

Letra de Kilometros de cielo
Versos:
Capo en 3° traste
Como llegar al filo de tu cama
para cantarte un cuento una canción,
para abrazarte fuerte hasta que caigas
rendida entre mis brazos y mi voz.
Y despertarte a besos en la cara,
dos horas antes de que salga el sol,
despues de haberte calentado el agua
beberla a sorbos de mi corazón.
Voy a volar kilómetros de cielo, mi cielo,
meterme entre tus sueños y luchar contra tus miedos.
y caminar kilómetros de asfalto y de tanto
viajar quedar rendido en tu interior.
Me robaré una nube en el trayecto,
el trino de la boca de un gorrión,
también la estrella más leve del cielo
y el tiempo de las manos del reloj.
Voy a dejarte el alma de mi cuerpo,
el fuego de mis ojos y el calor
que sale de mi aliento y de mis dedos,
para entibiar toda tu habitación
Voy a volar kilómetros de cielo, mi cielo,
meterme entre tus sueños y luchar contra tus miedos.
y caminar kilómetros de asfalto y de tanto
viajar quedar rendido en tu interior.
Voy a volar kilómetros de cielo, mi cielo,
meterme entre tus sueños y luchar contra tus miedos.
y caminar kilómetros de asfalto y de tanto
viajar quedar rendido en tu interior.
Cualquier comentario, estoy a la orden.




[Kilometros de cielo acordes][Kilometros de cielo chords]
© LaCuerda.net · notícia legal · privacidade · es · en · pt · contato
DINAMICO