Cifras para Violão e Guitarra » E »Edith Aravena » Naturaleza (Tab)

Naturaleza
Edith Aravena

Letras, cifras e tablaturas para violão, guitarra, piano, ukulele e baixo

  •       e|-7-8-10-10-8-----------------15-14-15------------------|
          B|------------8-10-10/12-12-15---------15-13-12-10-12----|
          G|-------------------------------------------------------|
          D|-------------------------------------------------------|
          A|-------------------------------------------------------|
          E|-------------------------------------------------------|
    
          e|--10-------------------------10/12--10-------|
          B|-- 13-----10---------------------------------|
          G|-----12-11---12p10h12-11-9-------------------|
          D|----------------------------------------12---|
          A|---------------------------------------------|
          E|---------------------------------------------|
    
    
                     G              C      D       G
                    Piensa en lo hermoso que puede ser
    
                                 C         D        Em
                    Si por un instante te detienes a ver
    
  •     G     C    E       G   C     D
    e|-7h8-10-10-8-----------------15-14-15------------------|
    B|------------8-10-10-12-12-15---------15-13-12-10-12----|
    G|-------------------------------------------------------|
    D|-------------------------------------------------------|
    A|-------------------------------------------------------|
    E|-------------------------------------------------------|
    
      e|--10---------------------------12-10hp12-1-3-|
      B|-- 13-----10-10hp12--------------------------|
      G|-----12-11---------12-11hp12-9---------------|
      A|---------------------------------------------|
      E|---------------------------------------------|
    
    
        G             C      D       G
       Pienso en lo hermoso que pude ser
                  C        D        Em
     Si por un instante detienes a ver
        Bm      Csus2 Dsus2     Bm      Em C
    
  • +
    ¡Colabora con nosotros!
    Envíanos tu versión de esta canción

Letra de Naturaleza
Pienso en lo hermoso que pude ser
Si por un instante detienes a ver
Lo que la lluvia junto al viento harán un arco
Iris
El firmamento de noche esta
Lleno de luces que quisiera alcanzar
Mi mano levanta para intentar tocar las estrellas
Pre coro:
Respiro la brisa entonces
Y siento que viva estoy
Comprendo cuan sabio es el cielo, quisiera
Alabar
Al creador del mundo entero,
Del universo, forjador
Sabiduría en cada trazo
Que con sus manos dio el color.
Hoy quiero darle mi alabanza
Quiero entregar mi adoración
Quiero sentir cuan tierna y clara es su voz.
Un libro abierto podemos leer
En las maravillas que podemos ver,
La naturaleza habla por mi Dios tan solo al Mirarla
Pre coro:
Levanto la vista entonces,
Declaro su autoridad
Al gran arquitecto eterno, quisiera adorar…
Al creador del mundo entero,
Del universo, forjador
Sabiduría en cada trazo
Que con sus manos dio el color.
Hoy quiero darle mi alabanza
Quiero entregar mi adoración
Quiero sentir cuan tierna y clara es su voz.
Al creador del mundo entero,
Del universo, forjador
Sabiduría en cada trazo
Que con sus manos dio el color.
Hoy quiero darle mi alabanza
Quiero entregar mi adoración
Quiero sentir cuan tierna y clara es su voz.
CUALQUIER DUDA AQUI ESTA MI CORREO: lonzoy_90_13@hotmail.com




[Naturaleza acordes][Naturaleza chords]
© LaCuerda.net · notícia legal · privacidade · es · en · pt · contato
DINAMICO